  0
SECTION
  2
HEADER
  9
$ACADVER
  1
AC1015
  9
$ACADMAINTVER
 70
     6
  9
$DWGCODEPAGE
  3
ANSI_1254
  9
$INSBASE
 10
0.0
 20
0.0
 30
0.0
  9
$EXTMIN
 10
0.0
 20
0.0
 30
0.0
  9
$EXTMAX
 10
279.4
 20
215.9
 30
0.0
  9
$LIMMIN
 10
0.0
 20
0.0
  9
$LIMMAX
 10
279.4
 20
215.9
  9
$ORTHOMODE
 70
     0
  9
$REGENMODE
 70
     1
  9
$FILLMODE
 70
     1
  9
$QTEXTMODE
 70
     0
  9
$MIRRTEXT
 70
     1
  9
$LTSCALE
 40
1.0
  9
$ATTMODE
 70
     1
  9
$TEXTSIZE
 40
3.5
  9
$TRACEWID
 40
1.0
  9
$TEXTSTYLE
  7
Standard
  9
$CLAYER
  8
0
  9
$CELTYPE
  6
ByLayer
  9
$CECOLOR
 62
   256
  9
$CELTSCALE
 40
1.0
  9
$DISPSILH
 70
     0
  9
$DIMSCALE
 40
1.0
  9
$DIMASZ
 40
3.5
  9
$DIMEXO
 40
1.0
  9
$DIMDLI
 40
3.75
  9
$DIMRND
 40
0.0
  9
$DIMDLE
 40
0.0
  9
$DIMEXE
 40
1.0
  9
$DIMTP
 40
0.0
  9
$DIMTM
 40
0.0
  9
$DIMTXT
 40
3.5
  9
$DIMCEN
 40
2.5
  9
$DIMTSZ
 40
0.0
  9
$DIMTOL
 70
     0
  9
$DIMLIM
 70
     0
  9
$DIMTIH
 70
     1
  9
$DIMTOH
 70
     1
  9
$DIMSE1
 70
     0
  9
$DIMSE2
 70
     0
  9
$DIMTAD
 70
     1
  9
$DIMZIN
 70
     0
  9
$DIMBLK
  1

  9
$DIMASO
 70
     1
  9
$DIMSHO
 70
     1
  9
$DIMPOST
  1

  9
$DIMAPOST
  1

  9
$DIMALT
 70
     0
  9
$DIMALTD
 70
     3
  9
$DIMALTF
 40
0.0393700787
  9
$DIMLFAC
 40
1.0
  9
$DIMTOFL
 70
     1
  9
$DIMTVP
 40
0.0
  9
$DIMTIX
 70
     0
  9
$DIMSOXD
 70
     0
  9
$DIMSAH
 70
     0
  9
$DIMBLK1
  1

  9
$DIMBLK2
  1

  9
$DIMSTYLE
  2
ISO-25
  9
$DIMCLRD
 70
     0
  9
$DIMCLRE
 70
     0
  9
$DIMCLRT
 70
     0
  9
$DIMTFAC
 40
1.0
  9
$DIMGAP
 40
1.524
  9
$DIMJUST
 70
     0
  9
$DIMSD1
 70
     0
  9
$DIMSD2
 70
     0
  9
$DIMTOLJ
 70
     0
  9
$DIMTZIN
 70
     0
  9
$DIMALTZ
 70
     0
  9
$DIMALTTZ
 70
     0
  9
$DIMUPT
 70
     0
  9
$DIMDEC
 70
     2
  9
$DIMTDEC
 70
     2
  9
$DIMALTU
 70
     2
  9
$DIMALTTD
 70
     3
  9
$DIMTXSTY
  7
Standard
  9
$DIMAUNIT
 70
     0
  9
$DIMADEC
 70
     2
  9
$DIMALTRND
 40
0.0
  9
$DIMAZIN
 70
     0
  9
$DIMDSEP
 70
    44
  9
$DIMATFIT
 70
     3
  9
$DIMFRAC
 70
     0
  9
$DIMLDRBLK
  1

  9
$DIMLUNIT
 70
     2
  9
$DIMLWD
 70
    -2
  9
$DIMLWE
 70
    -2
  9
$DIMTMOVE
 70
     0
  9
$LUNITS
 70
     2
  9
$LUPREC
 70
     2
  9
$SKETCHINC
 40
1.0
  9
$FILLETRAD
 40
10.0
  9
$AUNITS
 70
     0
  9
$AUPREC
 70
     2
  9
$MENU
  1
.
  9
$ELEVATION
 40
0.0
  9
$PELEVATION
 40
0.0
  9
$THICKNESS
 40
0.0
  9
$LIMCHECK
 70
     0
  9
$CHAMFERA
 40
0.0
  9
$CHAMFERB
 40
0.0
  9
$CHAMFERC
 40
0.0
  9
$CHAMFERD
 40
0.0
  9
$SKPOLY
 70
     0
  9
$TDCREATE
 40
2459741.607860798
  9
$TDUCREATE
 40
2459741.482860798
  9
$TDUPDATE
 40
2459741.607860798
  9
$TDUUPDATE
 40
2459741.482860798
  9
$TDINDWG
 40
0.0000000116
  9
$TDUSRTIMER
 40
0.0000000116
  9
$USRTIMER
 70
     1
  9
$ANGBASE
 50
0.0
  9
$ANGDIR
 70
     0
  9
$PDMODE
 70
     0
  9
$PDSIZE
 40
-1.0
  9
$PLINEWID
 40
0.0
  9
$SPLFRAME
 70
     0
  9
$SPLINETYPE
 70
     6
  9
$SPLINESEGS
 70
     8
  9
$HANDSEED
  5
106
  9
$SURFTAB1
 70
     6
  9
$SURFTAB2
 70
     6
  9
$SURFTYPE
 70
     6
  9
$SURFU
 70
     6
  9
$SURFV
 70
     6
  9
$UCSBASE
  2

  9
$UCSNAME
  2

  9
$UCSORG
 10
0.0
 20
0.0
 30
0.0
  9
$UCSXDIR
 10
1.0
 20
0.0
 30
0.0
  9
$UCSYDIR
 10
0.0
 20
1.0
 30
0.0
  9
$UCSORTHOREF
  2

  9
$UCSORTHOVIEW
 70
     0
  9
$UCSORGTOP
 10
0.0
 20
0.0
 30
0.0
  9
$UCSORGBOTTOM
 10
0.0
 20
0.0
 30
0.0
  9
$UCSORGLEFT
 10
0.0
 20
0.0
 30
0.0
  9
$UCSORGRIGHT
 10
0.0
 20
0.0
 30
0.0
  9
$UCSORGFRONT
 10
0.0
 20
0.0
 30
0.0
  9
$UCSORGBACK
 10
0.0
 20
0.0
 30
0.0
  9
$PUCSBASE
  2

  9
$PUCSNAME
  2

  9
$PUCSORG
 10
0.0
 20
0.0
 30
0.0
  9
$PUCSXDIR
 10
1.0
 20
0.0
 30
0.0
  9
$PUCSYDIR
 10
0.0
 20
1.0
 30
0.0
  9
$PUCSORTHOREF
  2

  9
$PUCSORTHOVIEW
 70
     0
  9
$PUCSORGTOP
 10
0.0
 20
0.0
 30
0.0
  9
$PUCSORGBOTTOM
 10
0.0
 20
0.0
 30
0.0
  9
$PUCSORGLEFT
 10
0.0
 20
0.0
 30
0.0
  9
$PUCSORGRIGHT
 10
0.0
 20
0.0
 30
0.0
  9
$PUCSORGFRONT
 10
0.0
 20
0.0
 30
0.0
  9
$PUCSORGBACK
 10
0.0
 20
0.0
 30
0.0
  9
$USERI1
 70
     0
  9
$USERI2
 70
     0
  9
$USERI3
 70
     0
  9
$USERI4
 70
     0
  9
$USERI5
 70
     0
  9
$USERR1
 40
0.0
  9
$USERR2
 40
0.0
  9
$USERR3
 40
0.0
  9
$USERR4
 40
0.0
  9
$USERR5
 40
0.0
  9
$WORLDVIEW
 70
     1
  9
$SHADEDGE
 70
     3
  9
$SHADEDIF
 70
    70
  9
$TILEMODE
 70
     1
  9
$MAXACTVP
 70
    64
  9
$PINSBASE
 10
0.0
 20
0.0
 30
0.0
  9
$PLIMCHECK
 70
     0
  9
$PEXTMIN
 10
1.0000000000E+20
 20
1.0000000000E+20
 30
1.0000000000E+20
  9
$PEXTMAX
 10
-1.0000000000E+20
 20
-1.0000000000E+20
 30
-1.0000000000E+20
  9
$PLIMMIN
 10
0.0
 20
0.0
  9
$PLIMMAX
 10
420.0
 20
297.0
  9
$UNITMODE
 70
     0
  9
$VISRETAIN
 70
     1
  9
$PLINEGEN
 70
     0
  9
$PSLTSCALE
 70
     1
  9
$TREEDEPTH
 70
  3020
  9
$CMLSTYLE
  2
Standard
  9
$CMLJUST
 70
     0
  9
$CMLSCALE
 40
20.0
  9
$PROXYGRAPHICS
 70
     1
  9
$MEASUREMENT
 70
     1
  9
$CELWEIGHT
370
    -1
  9
$ENDCAPS
280
     0
  9
$JOINSTYLE
280
     0
  9
$LWDISPLAY
290
     1
  9
$INSUNITS
 70
     4
  9
$HYPERLINKBASE
  1

  9
$STYLESHEET
  1

  9
$XEDIT
290
     1
  9
$CEPSNTYPE
380
     0
  9
$PSTYLEMODE
290
     1
  9
$FINGERPRINTGUID
  2
{641fa267-14d2-47f6-8796-c1714f27b016}
  9
$VERSIONGUID
  2
{FAEB1C32-E019-11D5-929B-00C0DF256EC4}
  9
$EXTNAMES
290
     1
  9
$PSVPSCALE
 40
0.0
  9
$OLESTARTUP
290
     0
  0
ENDSEC
  0
SECTION
  2
CLASSES
  0
CLASS
  1
ACDBDICTIONARYWDFLT
  2
AcDbDictionaryWithDefault
  3
ObjectDBX Classes
 90
        0
280
     0
281
     0
  0
CLASS
  1
VISUALSTYLE
  2
AcDbVisualStyle
  3
ObjectDBX Classes
 90
     4095
280
     0
281
     0
  0
CLASS
  1
MATERIAL
  2
AcDbMaterial
  3
ObjectDBX Classes
 90
     1153
280
     0
281
     0
  0
CLASS
  1
SCALE
  2
AcDbScale
  3
ObjectDBX Classes
 90
     1153
280
     0
281
     0
  0
CLASS
  1
TABLESTYLE
  2
AcDbTableStyle
  3
ObjectDBX Classes
 90
     4095
280
     0
281
     0
  0
CLASS
  1
MLEADERSTYLE
  2
AcDbMLeaderStyle
  3
ACDB_MLEADERSTYLE_CLASS
 90
     4095
280
     0
281
     0
  0
CLASS
  1
SUN
  2
AcDbSun
  3
SCENEOE
 90
     1153
280
     0
281
     0
  0
CLASS
  1
ACDBPLACEHOLDER
  2
AcDbPlaceHolder
  3
ObjectDBX Classes
 90
        0
280
     0
281
     0
  0
CLASS
  1
LAYOUT
  2
AcDbLayout
  3
ObjectDBX Classes
 90
        0
280
     0
281
     0
  0
ENDSEC
  0
SECTION
  2
TABLES
  0
TABLE
  2
VPORT
  5
8
330
0
100
AcDbSymbolTable
 70
     1
  0
VPORT
  5
29
330
8
100
AcDbSymbolTableRecord
100
AcDbViewportTableRecord
  2
*Active
 70
     0
 10
0.0
 20
0.0
 11
1.0
 21
1.0
 12
139.7
 22
107.95
 13
0.0
 23
0.0
 14
10.0
 24
10.0
 15
10.0
 25
10.0
 16
0.0
 26
0.0
 36
1.0
 17
0.0
 27
0.0
 37
0.0
 40
215.9
 41
1.2941176471
 42
50.0
 43
0.0
 44
0.0
 50
0.0
 51
0.0
 71
     0
 72
  2000
 73
     1
 74
     3
 75
     0
 76
     0
 77
     0
 78
     0
281
     0
 65
     1
110
0.0
120
0.0
130
0.0
111
1.0
121
0.0
131
0.0
112
0.0
122
1.0
132
0.0
 79
     0
146
0.0
  0
ENDTAB
  0
TABLE
  2
LTYPE
  5
5
330
0
100
AcDbSymbolTable
 70
     6
  0
LTYPE
  5
14
330
5
100
AcDbSymbolTableRecord
100
AcDbLinetypeTableRecord
  2
ByBlock
 70
     0
  3

 72
    65
 73
     0
 40
0.0
  0
LTYPE
  5
15
330
5
100
AcDbSymbolTableRecord
100
AcDbLinetypeTableRecord
  2
ByLayer
 70
     0
  3

 72
    65
 73
     0
 40
0.0
  0
LTYPE
  5
16
330
5
100
AcDbSymbolTableRecord
100
AcDbLinetypeTableRecord
  2
Continuous
 70
     0
  3
Solid line
 72
    65
 73
     0
 40
0.0
  0
LTYPE
  5
6E
330
5
100
AcDbSymbolTableRecord
100
AcDbLinetypeTableRecord
  2
HIDDEN
 70
     0
  3
Hidden __ __ __ __ __ __ __ __ __ __ __ __ __ __
 72
    65
 73
     2
 40
1.905
 49
1.27
 74
     0
 49
-0.635
 74
     0
  0
LTYPE
  5
6F
330
5
100
AcDbSymbolTableRecord
100
AcDbLinetypeTableRecord
  2
PHANTOM
 70
     0
  3
Phantom ______  __  __  ______  __  __  ______
 72
    65
 73
     6
 40
12.7
 49
6.35
 74
     0
 49
-1.27
 74
     0
 49
1.27
 74
     0
 49
-1.27
 74
     0
 49
1.27
 74
     0
 49
-1.27
 74
     0
  0
LTYPE
  5
70
330
5
100
AcDbSymbolTableRecord
100
AcDbLinetypeTableRecord
  2
CENTER
 70
     0
  3
Center ____ _ ____ _ ____ _ ____ _ ____ _ ____
 72
    65
 73
     4
 40
10.16
 49
6.35
 74
     0
 49
-1.27
 74
     0
 49
1.27
 74
     0
 49
-1.27
 74
     0
  0
LTYPE
  5
71
330
5
100
AcDbSymbolTableRecord
100
AcDbLinetypeTableRecord
  2
CENTERX2
 70
     0
  3
Center (2x) ________  __  ________  __  _____
 72
    65
 73
     4
 40
20.32
 49
12.7
 74
     0
 49
-2.54
 74
     0
 49
2.54
 74
     0
 49
-2.54
 74
     0
  0
LTYPE
  5
72
330
5
100
AcDbSymbolTableRecord
100
AcDbLinetypeTableRecord
  2
DOT2
 70
     0
  3
Dot (.5x) ........................................
 72
    65
 73
     2
 40
0.635
 49
0.0
 74
     0
 49
-0.635
 74
     0
  0
ENDTAB
  0
TABLE
  2
LAYER
  5
2
330
0
100
AcDbSymbolTable
 70
    17
  0
LAYER
  5
10
330
2
100
AcDbSymbolTableRecord
100
AcDbLayerTableRecord
  2
0
 70
     0
 62
     7
  6
Continuous
370
    -3
390
F
  0
LAYER
  5
73
330
2
100
AcDbSymbolTableRecord
100
AcDbLayerTableRecord
  2
FORMAT
 70
     0
 62
     7
  6
Continuous
370
    -3
390
F
  0
LAYER
  5
74
330
2
100
AcDbSymbolTableRecord
100
AcDbLayerTableRecord
  2
YARDIMCI_GEOMETRI
 70
     0
 62
    -6
  6
Continuous
290
     0
370
    -3
390
F
  0
LAYER
  5
75
330
2
100
AcDbSymbolTableRecord
100
AcDbLayerTableRecord
  2
SAYFA_CERCEVESI
 70
     0
 62
     7
  6
Continuous
370
    25
390
F
  0
LAYER
  5
76
330
2
100
AcDbSymbolTableRecord
100
AcDbLayerTableRecord
  2
ANTET
 70
     0
 62
     7
  6
Continuous
370
    -3
390
F
  0
LAYER
  5
77
330
2
100
AcDbSymbolTableRecord
100
AcDbLayerTableRecord
  2
OLCU
 70
     0
 62
   150
  6
Continuous
370
    -3
390
F
  0
LAYER
  5
78
330
2
100
AcDbSymbolTableRecord
100
AcDbLayerTableRecord
  2
METIN
 70
     0
 62
    96
  6
Continuous
370
    -3
390
F
  0
LAYER
  5
79
330
2
100
AcDbSymbolTableRecord
100
AcDbLayerTableRecord
  2
BALON
 70
     0
 62
     5
  6
Continuous
370
    -3
390
F
  0
LAYER
  5
7A
330
2
100
AcDbSymbolTableRecord
100
AcDbLayerTableRecord
  2
VURGU
 70
     0
 62
     7
  6
Continuous
370
    -3
390
F
  0
LAYER
  5
7B
330
2
100
AcDbSymbolTableRecord
100
AcDbLayerTableRecord
  2
SILIK
 70
     0
 62
     7
  6
Continuous
370
    -3
390
F
  0
LAYER
  5
7C
330
2
100
AcDbSymbolTableRecord
100
AcDbLayerTableRecord
  2
MODEL
 70
     0
 62
     7
  6
Continuous
370
    -3
390
F
  0
LAYER
  5
7D
330
2
100
AcDbSymbolTableRecord
100
AcDbLayerTableRecord
  2
DETAYLANDıRMA
 70
     0
 62
   190
  6
Continuous
370
    -3
390
F
  0
LAYER
  5
7E
330
2
100
AcDbSymbolTableRecord
100
AcDbLayerTableRecord
  2
TOLERANS
 70
     0
 62
   230
  6
Continuous
370
    -3
390
F
  0
LAYER
  5
7F
330
2
100
AcDbSymbolTableRecord
100
AcDbLayerTableRecord
  2
MERKEZ_CIZGILERI
 70
     0
 62
    30
  6
Continuous
370
    -3
390
F
  0
LAYER
  5
80
330
2
100
AcDbSymbolTableRecord
100
AcDbLayerTableRecord
  2
KESIT-DETAY_CIZGILERI
 70
     0
 62
     7
  6
Continuous
370
    -3
390
F
  0
LAYER
  5
81
330
2
100
AcDbSymbolTableRecord
100
AcDbLayerTableRecord
  2
\U+041E\U+0421\U+0415\U+0412\U+042B\U+0415
 70
     0
 62
     7
  6
Continuous
370
    -3
390
F
  0
LAYER
  5
82
330
2
100
AcDbSymbolTableRecord
100
AcDbLayerTableRecord
  2
\U+0412\U+041E\U+0414\U+042F\U+041D\U+042B\U+0415_\U+0417\U+041D\U+0410\U+041A\U+0418
 70
     0
 62
    11
  6
Continuous
370
    -3
390
F
  0
ENDTAB
  0
TABLE
  2
STYLE
  5
3
330
0
100
AcDbSymbolTable
 70
     1
  0
STYLE
  5
11
330
3
100
AcDbSymbolTableRecord
100
AcDbTextStyleTableRecord
  2
Standard
 70
     0
 40
0.0
 41
1.0
 50
0.0
 71
     0
 42
3.5
  3
txt
  4

  0
ENDTAB
  0
TABLE
  2
VIEW
  5
6
330
0
100
AcDbSymbolTable
 70
     0
  0
ENDTAB
  0
TABLE
  2
UCS
  5
7
330
0
100
AcDbSymbolTable
 70
     0
  0
ENDTAB
  0
TABLE
  2
APPID
  5
9
330
0
100
AcDbSymbolTable
 70
     1
  0
APPID
  5
12
330
9
100
AcDbSymbolTableRecord
100
AcDbRegAppTableRecord
  2
ACAD
 70
     0
  0
ENDTAB
  0
TABLE
  2
DIMSTYLE
  5
A
330
0
100
AcDbSymbolTable
 70
     1
100
AcDbDimStyleTable
  0
DIMSTYLE
105
27
330
A
100
AcDbSymbolTableRecord
100
AcDbDimStyleTableRecord
  2
ISO-25
 70
     0
 41
2.5
 42
0.625
 43
3.75
 44
1.25
 73
     0
 74
     0
 77
     1
 78
     8
140
2.5
141
2.5
143
0.0393700787
147
0.625
171
     3
172
     1
178
     0
271
     2
272
     2
274
     3
278
    44
283
     0
284
     8
340
11
  0
ENDTAB
  0
TABLE
  2
BLOCK_RECORD
  5
1
330
0
100
AcDbSymbolTable
 70
     5
  0
BLOCK_RECORD
  5
1F
330
1
100
AcDbSymbolTableRecord
100
AcDbBlockTableRecord
  2
*Model_Space
340
22
  0
BLOCK_RECORD
  5
1B
330
1
100
AcDbSymbolTableRecord
100
AcDbBlockTableRecord
  2
*Paper_Space
340
1E
  0
BLOCK_RECORD
  5
23
330
1
100
AcDbSymbolTableRecord
100
AcDbBlockTableRecord
  2
*Paper_Space0
340
26
  0
BLOCK_RECORD
  5
8C
330
1
100
AcDbSymbolTableRecord
100
AcDbBlockTableRecord
  2
SW_CENTERMARKSYMBOL_0
340
0
102
{BLKREFS
331
97
102
}
  0
BLOCK_RECORD
  5
AA
330
1
100
AcDbSymbolTableRecord
100
AcDbBlockTableRecord
  2
SW_CENTERMARKSYMBOL_1
340
0
102
{BLKREFS
331
B5
102
}
  0
BLOCK_RECORD
  5
DA
330
1
100
AcDbSymbolTableRecord
100
AcDbBlockTableRecord
  2
SW_CENTERMARKSYMBOL_2
340
0
102
{BLKREFS
331
E5
102
}
  0
BLOCK_RECORD
  5
E6
330
1
100
AcDbSymbolTableRecord
100
AcDbBlockTableRecord
  2
SW_CENTERMARKSYMBOL_3
340
0
102
{BLKREFS
331
F1
102
}
  0
ENDTAB
  0
ENDSEC
  0
SECTION
  2
BLOCKS
  0
BLOCK
  5
20
330
1F
100
AcDbEntity
  8
0
100
AcDbBlockBegin
  2
*Model_Space
 70
     0
 10
0.0
 20
0.0
 30
0.0
  3
*Model_Space
  1

  0
ENDBLK
  5
21
330
1F
100
AcDbEntity
  8
0
100
AcDbBlockEnd
  0
BLOCK
  5
1C
330
1B
100
AcDbEntity
 67
     1
  8
0
100
AcDbBlockBegin
  2
*Paper_Space
 70
     0
 10
0.0
 20
0.0
 30
0.0
  3
*Paper_Space
  1

  0
ENDBLK
  5
1D
330
1B
100
AcDbEntity
 67
     1
  8
0
100
AcDbBlockEnd
  0
BLOCK
  5
24
330
23
100
AcDbEntity
  8
0
100
AcDbBlockBegin
  2
*Paper_Space0
 70
     0
 10
0.0
 20
0.0
 30
0.0
  3
*Paper_Space0
  1

  0
ENDBLK
  5
25
330
23
100
AcDbEntity
  8
0
100
AcDbBlockEnd
  0
BLOCK
  5
8D
330
8C
100
AcDbEntity
  8
0
100
AcDbBlockBegin
  2
SW_CENTERMARKSYMBOL_0
 70
     0
 10
0.0
 20
0.0
 30
0.0
  3
SW_CENTERMARKSYMBOL_0
  1

  0
LINE
  5
8F
330
8C
100
AcDbEntity
  8
FORMAT
 62
     0
100
AcDbLine
 10
0.0
 20
0.0
 30
0.0
 11
0.0
 21
2.5
 31
0.0
  0
LINE
  5
90
330
8C
100
AcDbEntity
  8
FORMAT
 62
     0
100
AcDbLine
 10
0.0
 20
0.0
 30
0.0
 11
-2.5
 21
0.0
 31
0.0
  0
LINE
  5
91
330
8C
100
AcDbEntity
  8
FORMAT
 62
     0
100
AcDbLine
 10
0.0
 20
0.0
 30
0.0
 11
0.0
 21
-2.5
 31
0.0
  0
LINE
  5
92
330
8C
100
AcDbEntity
  8
FORMAT
 62
     0
100
AcDbLine
 10
0.0
 20
0.0
 30
0.0
 11
2.5
 21
0.0
 31
0.0
  0
LINE
  5
93
330
8C
100
AcDbEntity
  8
FORMAT
 62
     0
100
AcDbLine
 10
0.0
 20
5.0
 30
0.0
 11
0.0
 21
24.5
 31
0.0
  0
LINE
  5
94
330
8C
100
AcDbEntity
  8
FORMAT
 62
     0
100
AcDbLine
 10
-5.0
 20
0.0
 30
0.0
 11
-24.5
 21
0.0
 31
0.0
  0
LINE
  5
95
330
8C
100
AcDbEntity
  8
FORMAT
 62
     0
100
AcDbLine
 10
0.0
 20
-5.0
 30
0.0
 11
0.0
 21
-24.5
 31
0.0
  0
LINE
  5
96
330
8C
100
AcDbEntity
  8
FORMAT
 62
     0
100
AcDbLine
 10
5.0
 20
0.0
 30
0.0
 11
24.5
 21
0.0
 31
0.0
  0
ENDBLK
  5
8E
330
8C
100
AcDbEntity
  8
0
100
AcDbBlockEnd
  0
BLOCK
  5
AB
330
AA
100
AcDbEntity
  8
0
100
AcDbBlockBegin
  2
SW_CENTERMARKSYMBOL_1
 70
     0
 10
0.0
 20
0.0
 30
0.0
  3
SW_CENTERMARKSYMBOL_1
  1

  0
LINE
  5
AD
330
AA
100
AcDbEntity
  8
FORMAT
 62
     0
100
AcDbLine
 10
0.0
 20
0.0
 30
0.0
 11
0.0
 21
2.5
 31
0.0
  0
LINE
  5
AE
330
AA
100
AcDbEntity
  8
FORMAT
 62
     0
100
AcDbLine
 10
0.0
 20
0.0
 30
0.0
 11
-2.5
 21
0.0
 31
0.0
  0
LINE
  5
AF
330
AA
100
AcDbEntity
  8
FORMAT
 62
     0
100
AcDbLine
 10
0.0
 20
0.0
 30
0.0
 11
0.0
 21
-2.5
 31
0.0
  0
LINE
  5
B0
330
AA
100
AcDbEntity
  8
FORMAT
 62
     0
100
AcDbLine
 10
0.0
 20
0.0
 30
0.0
 11
2.5
 21
0.0
 31
0.0
  0
LINE
  5
B1
330
AA
100
AcDbEntity
  8
FORMAT
 62
     0
100
AcDbLine
 10
0.0
 20
5.0
 30
0.0
 11
0.0
 21
18.5
 31
0.0
  0
LINE
  5
B2
330
AA
100
AcDbEntity
  8
FORMAT
 62
     0
100
AcDbLine
 10
-5.0
 20
0.0
 30
0.0
 11
-18.5
 21
0.0
 31
0.0
  0
LINE
  5
B3
330
AA
100
AcDbEntity
  8
FORMAT
 62
     0
100
AcDbLine
 10
0.0
 20
-5.0
 30
0.0
 11
0.0
 21
-18.5
 31
0.0
  0
LINE
  5
B4
330
AA
100
AcDbEntity
  8
FORMAT
 62
     0
100
AcDbLine
 10
5.0
 20
0.0
 30
0.0
 11
18.5
 21
0.0
 31
0.0
  0
ENDBLK
  5
AC
330
AA
100
AcDbEntity
  8
0
100
AcDbBlockEnd
  0
BLOCK
  5
DB
330
DA
100
AcDbEntity
  8
0
100
AcDbBlockBegin
  2
SW_CENTERMARKSYMBOL_2
 70
     0
 10
0.0
 20
0.0
 30
0.0
  3
SW_CENTERMARKSYMBOL_2
  1

  0
LINE
  5
DD
330
DA
100
AcDbEntity
  8
FORMAT
 62
     0
100
AcDbLine
 10
0.0
 20
0.0
 30
0.0
 11
0.0
 21
2.5
 31
0.0
  0
LINE
  5
DE
330
DA
100
AcDbEntity
  8
FORMAT
 62
     0
100
AcDbLine
 10
0.0
 20
0.0
 30
0.0
 11
-2.5
 21
0.0
 31
0.0
  0
LINE
  5
DF
330
DA
100
AcDbEntity
  8
FORMAT
 62
     0
100
AcDbLine
 10
0.0
 20
0.0
 30
0.0
 11
0.0
 21
-2.5
 31
0.0
  0
LINE
  5
E0
330
DA
100
AcDbEntity
  8
FORMAT
 62
     0
100
AcDbLine
 10
0.0
 20
0.0
 30
0.0
 11
2.5
 21
0.0
 31
0.0
  0
LINE
  5
E1
330
DA
100
AcDbEntity
  8
FORMAT
 62
     0
100
AcDbLine
 10
0.0
 20
5.0
 30
0.0
 11
0.0
 21
9.5
 31
0.0
  0
LINE
  5
E2
330
DA
100
AcDbEntity
  8
FORMAT
 62
     0
100
AcDbLine
 10
-5.0
 20
0.0
 30
0.0
 11
-9.5
 21
0.0
 31
0.0
  0
LINE
  5
E3
330
DA
100
AcDbEntity
  8
FORMAT
 62
     0
100
AcDbLine
 10
0.0
 20
-5.0
 30
0.0
 11
0.0
 21
-9.5
 31
0.0
  0
LINE
  5
E4
330
DA
100
AcDbEntity
  8
FORMAT
 62
     0
100
AcDbLine
 10
5.0
 20
0.0
 30
0.0
 11
9.5
 21
0.0
 31
0.0
  0
ENDBLK
  5
DC
330
DA
100
AcDbEntity
  8
0
100
AcDbBlockEnd
  0
BLOCK
  5
E7
330
E6
100
AcDbEntity
  8
0
100
AcDbBlockBegin
  2
SW_CENTERMARKSYMBOL_3
 70
     0
 10
0.0
 20
0.0
 30
0.0
  3
SW_CENTERMARKSYMBOL_3
  1

  0
LINE
  5
E9
330
E6
100
AcDbEntity
  8
FORMAT
 62
     0
100
AcDbLine
 10
0.0
 20
0.0
 30
0.0
 11
0.0
 21
2.5
 31
0.0
  0
LINE
  5
EA
330
E6
100
AcDbEntity
  8
FORMAT
 62
     0
100
AcDbLine
 10
0.0
 20
0.0
 30
0.0
 11
-2.5
 21
0.0
 31
0.0
  0
LINE
  5
EB
330
E6
100
AcDbEntity
  8
FORMAT
 62
     0
100
AcDbLine
 10
0.0
 20
0.0
 30
0.0
 11
0.0
 21
-2.5
 31
0.0
  0
LINE
  5
EC
330
E6
100
AcDbEntity
  8
FORMAT
 62
     0
100
AcDbLine
 10
0.0
 20
0.0
 30
0.0
 11
2.5
 21
0.0
 31
0.0
  0
LINE
  5
ED
330
E6
100
AcDbEntity
  8
FORMAT
 62
     0
100
AcDbLine
 10
0.0
 20
5.0
 30
0.0
 11
0.0
 21
9.5
 31
0.0
  0
LINE
  5
EE
330
E6
100
AcDbEntity
  8
FORMAT
 62
     0
100
AcDbLine
 10
-5.0
 20
0.0
 30
0.0
 11
-9.5
 21
0.0
 31
0.0
  0
LINE
  5
EF
330
E6
100
AcDbEntity
  8
FORMAT
 62
     0
100
AcDbLine
 10
0.0
 20
-5.0
 30
0.0
 11
0.0
 21
-9.5
 31
0.0
  0
LINE
  5
F0
330
E6
100
AcDbEntity
  8
FORMAT
 62
     0
100
AcDbLine
 10
5.0
 20
0.0
 30
0.0
 11
9.5
 21
0.0
 31
0.0
  0
ENDBLK
  5
E8
330
E6
100
AcDbEntity
  8
0
100
AcDbBlockEnd
  0
ENDSEC
  0
SECTION
  2
ENTITIES
  0
LINE
  5
83
330
1F
100
AcDbEntity
  8
0
  6
Continuous
 62
     7
370
    25
100
AcDbLine
 10
121.3295369748
 20
132.3964975019
 30
0.0
 11
121.3295369748
 21
174.5314365546
 31
0.0
  0
LINE
  5
84
330
1F
100
AcDbEntity
  8
0
  6
Continuous
 62
     7
370
    25
100
AcDbLine
 10
107.3295369748
 20
174.5314365546
 30
0.0
 11
107.3295369748
 21
132.395814718
 31
0.0
  0
LINE
  5
85
330
1F
100
AcDbEntity
  8
0
  6
Continuous
 62
     7
370
    25
100
AcDbLine
 10
129.4600125782
 20
95.5314365546
 30
0.0
 11
204.3295369748
 21
95.5314365546
 31
0.0
  0
LINE
  5
86
330
1F
100
AcDbEntity
  8
0
  6
Continuous
 62
     7
370
    25
100
AcDbLine
 10
204.3295369748
 20
127.5314365546
 30
0.0
 11
129.4314121643
 21
127.5314365546
 31
0.0
  0
CIRCLE
  5
87
330
1F
100
AcDbEntity
  8
0
  6
Continuous
 62
     7
370
    25
100
AcDbCircle
 10
114.3295369748
 20
111.5314365546
 30
0.0
 40
16.0
  0
CIRCLE
  5
88
330
1F
100
AcDbEntity
  8
0
  6
Continuous
 62
     7
370
    25
100
AcDbCircle
 10
114.3295369748
 20
111.5314365546
 30
0.0
 40
22.00000000000003
  0
LINE
  5
89
330
1F
100
AcDbEntity
  8
0
  6
Continuous
 62
     7
370
    25
100
AcDbLine
 10
114.3295369748
 20
174.5314365546
 30
0.0
 11
107.3295369748
 21
174.5314365546
 31
0.0
  0
LINE
  5
8A
330
1F
100
AcDbEntity
  8
0
  6
Continuous
 62
     7
370
    25
100
AcDbLine
 10
121.3295369748
 20
174.5314365546
 30
0.0
 11
114.3295369748
 21
174.5314365546
 31
0.0
  0
LINE
  5
8B
330
1F
100
AcDbEntity
  8
0
  6
Continuous
 62
     7
370
    25
100
AcDbLine
 10
204.3295369748
 20
127.5314365546
 30
0.0
 11
204.3295369748
 21
95.5314365546
 31
0.0
  0
INSERT
  5
97
330
1F
100
AcDbEntity
  8
FORMAT
 62
     7
100
AcDbBlockReference
  2
SW_CENTERMARKSYMBOL_0
 10
114.3295369748
 20
111.5314365546
 30
0.0
  0
LINE
  5
98
330
1F
100
AcDbEntity
  8
0
  6
Continuous
 62
     7
370
    25
100
AcDbLine
 10
-80.6927908763
 20
133.5314365546
 30
0.0
 11
-81.6972545626
 21
133.5314365546
 31
0.0
  0
LINE
  5
99
330
1F
100
AcDbEntity
  8
0
  6
Continuous
 62
     7
370
    25
100
AcDbLine
 10
1.3072091237
 20
133.5314365546
 30
0.0
 11
-66.6972545626
 21
133.5314365546
 31
0.0
  0
LINE
  5
9A
330
1F
100
AcDbEntity
  8
0
  6
Continuous
 62
     7
370
    25
100
AcDbLine
 10
16.3027454374
 20
133.5314365546
 30
0.0
 11
15.3027454374
 21
133.5314365546
 31
0.0
  0
LINE
  5
9B
330
1F
100
AcDbEntity
  8
0
  6
Continuous
 62
     7
370
    25
100
AcDbLine
 10
-81.6972545626
 20
89.5314365546
 30
0.0
 11
16.3027454374
 21
89.5314365546
 31
0.0
  0
LINE
  5
9C
330
1F
100
AcDbEntity
  8
0
  6
Continuous
 62
     7
370
    25
100
AcDbLine
 10
15.3027454374
 20
133.5314365546
 30
0.0
 11
15.3027454374
 21
174.5314365546
 31
0.0
  0
LINE
  5
9D
330
1F
100
AcDbEntity
  8
0
  6
Continuous
 62
     7
370
    25
100
AcDbLine
 10
1.3027454374
 20
174.5314365546
 30
0.0
 11
1.3027454374
 21
133.5300303083
 31
0.0
  0
LINE
  5
9E
330
1F
100
AcDbEntity
  8
0
  6
Continuous
 62
     7
370
    25
100
AcDbLine
 10
-66.6972545626
 20
133.5314365546
 30
0.0
 11
-66.6972545626
 21
174.5314365546
 31
0.0
  0
LINE
  5
9F
330
1F
100
AcDbEntity
  8
0
  6
Continuous
 62
     7
370
    25
100
AcDbLine
 10
-80.6972545626
 20
174.5314365546
 30
0.0
 11
-80.6972545626
 21
133.5300303083
 31
0.0
  0
CIRCLE
  5
A0
330
1F
100
AcDbEntity
  8
0
  6
Continuous
 62
     7
370
    25
100
AcDbCircle
 10
-32.6972545626
 20
111.5314365546
 30
0.0
 40
13.0
  0
CIRCLE
  5
A1
330
1F
100
AcDbEntity
  8
0
  6
Continuous
 62
     7
370
    25
100
AcDbCircle
 10
-32.6972545626
 20
111.5314365546
 30
0.0
 40
16.0
  0
LINE
  5
A2
330
1F
100
AcDbEntity
  8
0
  6
Continuous
 62
     7
370
    25
100
AcDbLine
 10
-81.6972545626
 20
111.5314365546
 30
0.0
 11
-81.6972545626
 21
133.5314365546
 31
0.0
  0
LINE
  5
A3
330
1F
100
AcDbEntity
  8
0
  6
Continuous
 62
     7
370
    25
100
AcDbLine
 10
-81.6972545626
 20
89.5314365546
 30
0.0
 11
-81.6972545626
 21
111.5314365546
 31
0.0
  0
LINE
  5
A4
330
1F
100
AcDbEntity
  8
0
  6
Continuous
 62
     7
370
    25
100
AcDbLine
 10
16.3027454374
 20
111.5314365546
 30
0.0
 11
16.3027454374
 21
133.5314365546
 31
0.0
  0
LINE
  5
A5
330
1F
100
AcDbEntity
  8
0
  6
Continuous
 62
     7
370
    25
100
AcDbLine
 10
16.3027454374
 20
89.5314365546
 30
0.0
 11
16.3027454374
 21
111.5314365546
 31
0.0
  0
SPLINE
  5
A6
330
1F
100
AcDbEntity
  8
0
  6
Continuous
 62
     7
370
    25
100
AcDbSpline
210
0.0
220
0.0
230
1.0
 70
     8
 71
     3
 72
    26
 73
    22
 74
     0
 42
0.00000001
 43
0.00000001
 40
0.0
 40
0.0
 40
0.0
 40
0.0
 40
0.0511331702582496
 40
0.1037933502116473
 40
0.1549148013619596
 40
0.2074417768953689
 40
0.2600413000836436
 40
0.3140886931757431
 40
0.3679559167468817
 40
0.4234801630950363
 40
0.4756383272155059
 40
0.5294418203860601
 40
0.5795304303166957
 40
0.6310342995611095
 40
0.6819291980775328
 40
0.7341721164585325
 40
0.7874318086195184
 40
0.8422062946748826
 40
0.8958262704989401
 40
0.9511281357176448
 40
1.0
 40
1.0
 40
1.0
 40
1.0
 10
15.30274543744813
 20
133.5314365546218
 30
0.0
 10
15.28504667536635
 20
133.5257725290652
 30
0.0
 10
15.24912060620638
 20
133.5142753309599
 30
0.0
 10
14.96091835544416
 20
133.4241244465474
 30
0.0
 10
14.50745527433609
 20
133.2894945294114
 30
0.0
 10
13.88850551581337
 20
133.119601415697
 30
0.0
 10
13.10914634878261
 20
132.929405687116
 30
0.0
 10
12.18922610329422
 20
132.7397100033613
 30
0.0
 10
11.13824768104556
 20
132.5704891762118
 30
0.0
 10
10.01147691647723
 20
132.4473148239437
 30
0.0
 10
8.832356059516266
 20
132.3837805380212
 30
0.0
 10
7.67592959112854
 20
132.3869429307582
 30
0.0
 10
6.544398856329736
 20
132.4526748063912
 30
0.0
 10
5.482875150864791
 20
132.5695405770892
 30
0.0
 10
4.484450178872238
 20
132.7278340837843
 30
0.0
 10
3.577446123408379
 20
132.9112459522983
 30
0.0
 10
2.777954088144463
 20
133.1035353157355
 30
0.0
 10
2.124866656147757
 20
133.2816001622425
 30
0.0
 10
1.644568331576779
 20
133.4240235352574
 30
0.0
 10
1.352351223298597
 20
133.5155697693256
 30
0.0
 10
1.321624295766398
 20
133.5254080217271
 30
0.0
 10
1.307209123732528
 20
133.5300235206484
 30
0.0
  0
SPLINE
  5
A7
330
1F
100
AcDbEntity
  8
0
  6
Continuous
 62
     7
370
    25
100
AcDbSpline
210
0.0
220
0.0
230
1.0
 70
     8
 71
     3
 72
    26
 73
    22
 74
     0
 42
0.00000001
 43
0.00000001
 40
0.0
 40
0.0
 40
0.0
 40
0.0
 40
0.0511331702582496
 40
0.1037933502116473
 40
0.1549148013619596
 40
0.2074417768953689
 40
0.2600413000836436
 40
0.3140886931757431
 40
0.3679559167468817
 40
0.4234801630950363
 40
0.4756383272155059
 40
0.5294418203860601
 40
0.5795304303166957
 40
0.6310342995611095
 40
0.6819291980775328
 40
0.7341721164585325
 40
0.7874318086195184
 40
0.8422062946748826
 40
0.8958262704989401
 40
0.9511281357176448
 40
1.0
 40
1.0
 40
1.0
 40
1.0
 10
-66.6972545625519
 20
133.5314365546218
 30
0.0
 10
-66.71495332463367
 20
133.5257725290652
 30
0.0
 10
-66.75087939379362
 20
133.5142753309599
 30
0.0
 10
-67.03908164455586
 20
133.4241244465474
 30
0.0
 10
-67.4925447256639
 20
133.2894945294114
 30
0.0
 10
-68.11149448418668
 20
133.119601415697
 30
0.0
 10
-68.8908536512174
 20
132.929405687116
 30
0.0
 10
-69.81077389670577
 20
132.7397100033613
 30
0.0
 10
-70.86175231895444
 20
132.5704891762118
 30
0.0
 10
-71.9885230835228
 20
132.4473148239437
 30
0.0
 10
-73.16764394048373
 20
132.3837805380212
 30
0.0
 10
-74.32407040887148
 20
132.3869429307582
 30
0.0
 10
-75.45560114367028
 20
132.4526748063912
 30
0.0
 10
-76.51712484913526
 20
132.5695405770892
 30
0.0
 10
-77.51554982112776
 20
132.7278340837843
 30
0.0
 10
-78.42255387659164
 20
132.9112459522983
 30
0.0
 10
-79.22204591185559
 20
133.1035353157355
 30
0.0
 10
-79.87513334385226
 20
133.2816001622425
 30
0.0
 10
-80.35543166842324
 20
133.4240235352574
 30
0.0
 10
-80.64764877670144
 20
133.5155697693256
 30
0.0
 10
-80.67837570423364
 20
133.5254080217271
 30
0.0
 10
-80.6927908762675
 20
133.5300235206484
 30
0.0
  0
LINE
  5
A8
330
1F
100
AcDbEntity
  8
0
  6
Continuous
 62
     7
370
    25
100
AcDbLine
 10
15.3027454374
 20
174.5314365546
 30
0.0
 11
1.3027454374
 21
174.5314365546
 31
0.0
  0
LINE
  5
A9
330
1F
100
AcDbEntity
  8
0
  6
Continuous
 62
     7
370
    25
100
AcDbLine
 10
-66.6972545626
 20
174.5314365546
 30
0.0
 11
-80.6972545626
 21
174.5314365546
 31
0.0
  0
INSERT
  5
B5
330
1F
100
AcDbEntity
  8
FORMAT
 62
     7
100
AcDbBlockReference
  2
SW_CENTERMARKSYMBOL_1
 10
-32.6972545626
 20
111.5314365546
 30
0.0
  0
LINE
  5
B6
330
1F
100
AcDbEntity
  8
0
  6
Continuous
 62
     7
370
    25
100
AcDbLine
 10
136.3295369748
 20
257.9485693805
 30
0.0
 11
136.3295369748
 21
290.9485693805
 31
0.0
  0
LINE
  5
B7
330
1F
100
AcDbEntity
  8
0
  6
Continuous
 62
     7
370
    25
100
AcDbLine
 10
136.3295369748
 20
192.9485693805
 30
0.0
 11
136.3295369748
 21
225.9689352039
 31
0.0
  0
LINE
  5
B8
330
1F
100
AcDbEntity
  8
0
  6
Continuous
 62
     7
370
    25
100
AcDbLine
 10
92.3295369748
 20
290.9485693805
 30
0.0
 11
92.3295369748
 21
192.9485693805
 31
0.0
  0
LINE
  5
B9
330
1F
100
AcDbEntity
  8
0
  6
Continuous
 62
     7
370
    25
100
AcDbLine
 10
136.3147656177
 20
225.9485693805
 30
0.0
 11
204.3295369748
 21
225.9485693805
 31
0.0
  0
LINE
  5
BA
330
1F
100
AcDbEntity
  8
0
  6
Continuous
 62
     7
370
    25
100
AcDbLine
 10
204.3295369748
 20
257.9485693805
 30
0.0
 11
136.3295369748
 21
257.9485693805
 31
0.0
  0
SPLINE
  5
BB
330
1F
100
AcDbEntity
  8
0
  6
Continuous
 62
     7
370
    25
100
AcDbSpline
210
0.0
220
0.0
230
1.0
 70
     8
 71
     3
 72
    34
 73
    30
 74
     0
 42
0.00000001
 43
0.00000001
 40
0.0
 40
0.0
 40
0.0
 40
0.0
 40
0.0442942595682839
 40
0.0900429626175185
 40
0.1343027630453922
 40
0.1796568650802321
 40
0.2280694076422847
 40
0.2774817643722818
 40
0.3062122610746049
 40
0.334940927424863
 40
0.3645263706198138
 40
0.3941033009716246
 40
0.432604957676733
 40
0.4720751010681706
 40
0.5106373807530916
 40
0.5505562734910422
 40
0.5937669871012277
 40
0.6382224638862127
 40
0.667178797749874
 40
0.696139361846813
 40
0.7259241855227511
 40
0.755708685695887
 40
0.7849438288864903
 40
0.8141756665720874
 40
0.844400293258288
 40
0.8746187695045132
 40
0.9181237046068481
 40
0.9628305541424949
 40
1.0
 40
1.0
 40
1.0
 40
1.0
 10
136.3295369747899
 20
257.9485693804729
 30
0.0
 10
136.3055995138106
 20
257.9157356941546
 30
0.0
 10
136.2569385829107
 20
257.8489901966889
 30
0.0
 10
135.8739510303626
 20
257.3185528347242
 30
0.0
 10
135.2956924841052
 20
256.4996033658016
 30
0.0
 10
134.5323090904365
 20
255.3815399288576
 30
0.0
 10
133.6133391680244
 20
253.9637873817983
 30
0.0
 10
132.7372695142008
 20
252.5001681355609
 30
0.0
 10
131.9959556622453
 20
251.1366629248234
 30
0.0
 10
131.4072559977463
 20
249.9509156666203
 30
0.0
 10
130.8462844893915
 20
248.67843461165
 30
0.0
 10
130.2865516252573
 20
247.1818161074818
 30
0.0
 10
129.7867582990922
 20
245.4326819973923
 30
0.0
 10
129.4565847458281
 20
243.4350370503242
 30
0.0
 10
129.3931148069661
 20
241.3614917665641
 30
0.0
 10
129.6213945647575
 20
239.2432657330349
 30
0.0
 10
130.1393807971926
 20
237.1209899233046
 30
0.0
 10
130.7993363139898
 20
235.3163958020805
 30
0.0
 10
131.4564189882395
 20
233.842036558601
 30
0.0
 10
132.0518459196768
 20
232.6534050818856
 30
0.0
 10
132.6664030128676
 20
231.5315536808093
 30
0.0
 10
133.2802115064051
 20
230.488422507878
 30
0.0
 10
133.8712815198517
 20
229.5371060426035
 30
0.0
 10
134.4330414752496
 20
228.6716913282605
 30
0.0
 10
134.9523509266092
 20
227.8987460430781
 30
0.0
 10
135.4822389977351
 20
227.1320001137694
 30
0.0
 10
135.9543696837066
 20
226.4665365216723
 30
0.0
 10
136.2799483834648
 20
226.0166297363113
 30
0.0
 10
136.3038824270492
 20
225.9838267852661
 30
0.0
 10
136.3147477835348
 20
225.9689352039239
 30
0.0
  0
LINE
  5
BC
330
1F
100
AcDbEntity
  8
0
  6
Continuous
 62
     7
370
    25
100
AcDbLine
 10
92.3295369748
 20
290.9485693805
 30
0.0
 11
136.3295369748
 21
290.9485693805
 31
0.0
  0
LINE
  5
BD
330
1F
100
AcDbEntity
  8
0
  6
Continuous
 62
     7
370
    25
100
AcDbLine
 10
92.3295369748
 20
192.9485693805
 30
0.0
 11
136.3295369748
 21
192.9485693805
 31
0.0
  0
LINE
  5
BE
330
1F
100
AcDbEntity
  8
0
  6
Continuous
 62
     7
370
    25
100
AcDbLine
 10
204.3295369748
 20
257.9485693805
 30
0.0
 11
204.3295369748
 21
225.9485693805
 31
0.0
  0
LINE
  5
BF
330
1F
100
AcDbEntity
  8
0
  6
Continuous
 62
     7
370
    25
100
AcDbLine
 10
268.5044977064
 20
89.5314365546
 30
0.0
 11
366.5044977064
 21
89.5314365546
 31
0.0
  0
LINE
  5
C0
330
1F
100
AcDbEntity
  8
0
  6
Continuous
 62
     7
370
    25
100
AcDbLine
 10
269.5044977064
 20
133.5314365546
 30
0.0
 11
268.5044977064
 21
133.5314365546
 31
0.0
  0
LINE
  5
C1
330
1F
100
AcDbEntity
  8
0
  6
Continuous
 62
     7
370
    25
100
AcDbLine
 10
351.5044977064
 20
133.5314365546
 30
0.0
 11
283.5000340201
 21
133.5314365546
 31
0.0
  0
LINE
  5
C2
330
1F
100
AcDbEntity
  8
0
  6
Continuous
 62
     7
370
    25
100
AcDbLine
 10
366.5044977064
 20
133.5314365546
 30
0.0
 11
365.5000340201
 21
133.5314365546
 31
0.0
  0
LINE
  5
C3
330
1F
100
AcDbEntity
  8
0
  6
Continuous
 62
     7
370
    25
100
AcDbLine
 10
283.5044977064
 20
133.5300303083
 30
0.0
 11
283.5044977064
 21
174.5314365546
 31
0.0
  0
LINE
  5
C4
330
1F
100
AcDbEntity
  8
0
  6
Continuous
 62
     7
370
    25
100
AcDbLine
 10
269.5044977064
 20
174.5314365546
 30
0.0
 11
269.5044977064
 21
133.5314365546
 31
0.0
  0
LINE
  5
C5
330
1F
100
AcDbEntity
  8
0
  6
Continuous
 62
     7
370
    25
100
AcDbLine
 10
365.5044977064
 20
133.5300303083
 30
0.0
 11
365.5044977064
 21
174.5314365546
 31
0.0
  0
LINE
  5
C6
330
1F
100
AcDbEntity
  8
0
  6
Continuous
 62
     7
370
    25
100
AcDbLine
 10
351.5044977064
 20
174.5314365546
 30
0.0
 11
351.5044977064
 21
133.5314365546
 31
0.0
  0
LINE
  5
C7
330
1F
100
AcDbEntity
  8
0
  6
Continuous
 62
     7
370
    25
100
AcDbLine
 10
366.5044977064
 20
133.5314365546
 30
0.0
 11
366.5044977064
 21
89.5314365546
 31
0.0
  0
LINE
  5
C8
330
1F
100
AcDbEntity
  8
0
  6
Continuous
 62
     7
370
    25
100
AcDbLine
 10
268.5044977064
 20
133.5314365546
 30
0.0
 11
268.5044977064
 21
89.5314365546
 31
0.0
  0
SPLINE
  5
C9
330
1F
100
AcDbEntity
  8
0
  6
Continuous
 62
     7
370
    25
100
AcDbSpline
210
0.0
220
0.0
230
1.0
 70
     8
 71
     3
 72
    27
 73
    23
 74
     0
 42
0.00000001
 43
0.00000001
 40
0.0
 40
0.0
 40
0.0
 40
0.0
 40
0.0026160515322937
 40
0.0556780802630228
 40
0.1059001752218258
 40
0.1575133375507164
 40
0.2090209802033005
 40
0.261907954497671
 40
0.3154822174549665
 40
0.3706154887078399
 40
0.4239207236444004
 40
0.4789230844907443
 40
0.5297639097279441
 40
0.5821307240020357
 40
0.6322524185796022
 40
0.68372159775016
 40
0.7358729474126224
 40
0.78943723084984
 40
0.8432928032808178
 40
0.8987738759031307
 40
0.9486847287901331
 40
1.0
 40
1.0
 40
1.0
 40
1.0
 10
283.5000340201112
 20
133.5300235206484
 30
0.0
 10
283.5015102762508
 20
133.5304908151228
 30
0.0
 10
283.5329298055736
 20
133.5404363605111
 30
0.0
 10
283.4178373365621
 20
133.5037536627164
 30
0.0
 10
283.1451501614032
 20
133.4188866461109
 30
0.0
 10
282.6855480202042
 20
133.2826616295723
 30
0.0
 10
282.0634638096759
 20
133.1127161260409
 30
0.0
 10
281.2848180249729
 20
132.923506621705
 30
0.0
 10
280.3552056331354
 20
132.7330331008876
 30
0.0
 10
279.3091888084393
 20
132.5664336538397
 30
0.0
 10
278.1678377250397
 20
132.4435324388009
 30
0.0
 10
277.0036314959858
 20
132.3830235897408
 30
0.0
 10
275.8321848823306
 20
132.3885040371196
 30
0.0
 10
274.7160045527901
 20
132.4551142252662
 30
0.0
 10
273.6470390638299
 20
132.5747721164495
 30
0.0
 10
272.6568835925468
 20
132.7331268552153
 30
0.0
 10
271.7492545933189
 20
132.9179168343838
 30
0.0
 10
270.9581011041025
 20
133.1091922434056
 30
0.0
 10
270.305024710608
 20
133.2877218890797
 30
0.0
 10
269.8439772240444
 20
133.4248731258529
 30
0.0
 10
269.5573370158652
 20
133.5145223168059
 30
0.0
 10
269.5222729698939
 20
133.5257465666741
 30
0.0
 10
269.5044977063956
 20
133.5314365546218
 30
0.0
  0
SPLINE
  5
CA
330
1F
100
AcDbEntity
  8
0
  6
Continuous
 62
     7
370
    25
100
AcDbSpline
210
0.0
220
0.0
230
1.0
 70
     8
 71
     3
 72
    27
 73
    23
 74
     0
 42
0.00000001
 43
0.00000001
 40
0.0
 40
0.0
 40
0.0
 40
0.0
 40
0.0026160515322937
 40
0.0556780802630228
 40
0.1059001752218257
 40
0.1575133375507164
 40
0.2090209802033005
 40
0.261907954497671
 40
0.3154822174549665
 40
0.3706154887078399
 40
0.4239207236444004
 40
0.4789230844907442
 40
0.5297639097279441
 40
0.5821307240020357
 40
0.6322524185796022
 40
0.68372159775016
 40
0.7358729474126224
 40
0.7894372308498399
 40
0.8432928032808178
 40
0.8987738759031307
 40
0.9486847287901331
 40
1.0
 40
1.0
 40
1.0
 40
1.0
 10
365.5000340201113
 20
133.5300235206484
 30
0.0
 10
365.5015102762508
 20
133.5304908151228
 30
0.0
 10
365.5329298055736
 20
133.5404363605111
 30
0.0
 10
365.417837336562
 20
133.5037536627163
 30
0.0
 10
365.1451501614033
 20
133.4188866461109
 30
0.0
 10
364.6855480202042
 20
133.2826616295723
 30
0.0
 10
364.0634638096759
 20
133.1127161260409
 30
0.0
 10
363.2848180249729
 20
132.9235066217049
 30
0.0
 10
362.3552056331354
 20
132.7330331008877
 30
0.0
 10
361.3091888084393
 20
132.5664336538397
 30
0.0
 10
360.1678377250398
 20
132.4435324388009
 30
0.0
 10
359.0036314959859
 20
132.3830235897408
 30
0.0
 10
357.8321848823306
 20
132.3885040371196
 30
0.0
 10
356.7160045527902
 20
132.4551142252662
 30
0.0
 10
355.6470390638299
 20
132.5747721164495
 30
0.0
 10
354.6568835925468
 20
132.7331268552153
 30
0.0
 10
353.7492545933189
 20
132.9179168343838
 30
0.0
 10
352.9581011041025
 20
133.1091922434056
 30
0.0
 10
352.3050247106081
 20
133.2877218890797
 30
0.0
 10
351.8439772240444
 20
133.4248731258529
 30
0.0
 10
351.5573370158653
 20
133.5145223168059
 30
0.0
 10
351.5222729698939
 20
133.5257465666741
 30
0.0
 10
351.5044977063956
 20
133.5314365546218
 30
0.0
  0
LINE
  5
CB
330
1F
100
AcDbEntity
  8
0
  6
Continuous
 62
     7
370
    25
100
AcDbLine
 10
283.5044977064
 20
174.5314365546
 30
0.0
 11
269.5044977064
 21
174.5314365546
 31
0.0
  0
LINE
  5
CC
330
1F
100
AcDbEntity
  8
0
  6
Continuous
 62
     7
370
    25
100
AcDbLine
 10
365.5044977064
 20
174.5314365546
 30
0.0
 11
351.5044977064
 21
174.5314365546
 31
0.0
  0
LINE
  5
CD
330
1F
100
AcDbEntity
  8
0
  6
Continuous
 62
     7
370
    25
100
AcDbLine
 10
92.3295369748
 20
60.0828816345
 30
0.0
 11
92.3295369748
 21
-37.9171183655
 31
0.0
  0
LINE
  5
CE
330
1F
100
AcDbEntity
  8
0
  6
Continuous
 62
     7
370
    25
100
AcDbLine
 10
136.3295369748
 20
27.0625158111
 30
0.0
 11
136.3295369748
 21
60.0828816345
 31
0.0
  0
LINE
  5
CF
330
1F
100
AcDbEntity
  8
0
  6
Continuous
 62
     7
370
    25
100
AcDbLine
 10
136.3295369748
 20
-37.9171183655
 30
0.0
 11
136.3295369748
 21
-4.9171183655
 31
0.0
  0
LINE
  5
D0
330
1F
100
AcDbEntity
  8
0
  6
Continuous
 62
     7
370
    25
100
AcDbLine
 10
136.3295369748
 20
-4.9171183655
 30
0.0
 11
204.3295369748
 21
-4.9171183655
 31
0.0
  0
LINE
  5
D1
330
1F
100
AcDbEntity
  8
0
  6
Continuous
 62
     7
370
    25
100
AcDbLine
 10
204.3295369748
 20
27.0828816345
 30
0.0
 11
136.3147656177
 21
27.0828816345
 31
0.0
  0
CIRCLE
  5
D2
330
1F
100
AcDbEntity
  8
0
  6
Continuous
 62
     7
370
    25
100
AcDbCircle
 10
114.3295369748
 20
52.0828816345
 30
0.0
 40
5.000000000000007
  0
CIRCLE
  5
D3
330
1F
100
AcDbEntity
  8
0
  6
Continuous
 62
     7
370
    25
100
AcDbCircle
 10
114.3295369748
 20
52.0828816345
 30
0.0
 40
7.000000000000021
  0
CIRCLE
  5
D4
330
1F
100
AcDbEntity
  8
0
  6
Continuous
 62
     7
370
    25
100
AcDbCircle
 10
114.3295369748
 20
-29.9171183655
 30
0.0
 40
7.000000000000018
  0
CIRCLE
  5
D5
330
1F
100
AcDbEntity
  8
0
  6
Continuous
 62
     7
370
    25
100
AcDbCircle
 10
114.3295369748
 20
-29.9171183655
 30
0.0
 40
5.000000000000004
  0
SPLINE
  5
D6
330
1F
100
AcDbEntity
  8
0
  6
Continuous
 62
     7
370
    25
100
AcDbSpline
210
0.0
220
0.0
230
1.0
 70
     8
 71
     3
 72
    34
 73
    30
 74
     0
 42
0.00000001
 43
0.00000001
 40
0.0
 40
0.0
 40
0.0
 40
0.0
 40
0.0063701369125118
 40
0.0513321170003238
 40
0.0925816682762764
 40
0.1348613681987373
 40
0.1796632972719628
 40
0.2254046626030009
 40
0.2783915965688107
 40
0.3325798081206846
 40
0.3791216795884071
 40
0.4029839990620268
 40
0.4268404723629792
 40
0.4632309627113647
 40
0.5006263245565136
 40
0.5370447023656656
 40
0.5745279654445992
 40
0.5983569737418668
 40
0.6221917281738647
 40
0.6711566360895629
 40
0.7204378341082112
 40
0.7706790887854457
 40
0.800433381823763
 40
0.8301834448621068
 40
0.8610521736367126
 40
0.8919137836334149
 40
0.9345507248420953
 40
0.9783787742680922
 40
0.9999999999999999
 40
0.9999999999999999
 40
0.9999999999999999
 40
0.9999999999999999
 10
136.3147477835348
 20
27.06251581107503
 30
0.0
 10
136.3194845077164
 20
27.06903893053828
 30
0.0
 10
136.3576541865208
 20
27.12160381824685
 30
0.0
 10
136.1969814173999
 20
26.90084169618377
 30
0.0
 10
135.8392313005596
 20
26.40375872781544
 30
0.0
 10
135.2772720346661
 20
25.60720690781633
 30
0.0
 10
134.5442990576195
 20
24.53312689535495
 30
0.0
 10
133.6262170203881
 20
23.11854486229347
 30
0.0
 10
132.5673452012656
 20
21.35439098467224
 30
0.0
 10
131.4997052840482
 20
19.32724395787448
 30
0.0
 10
130.7117896046103
 20
17.49929748382993
 30
0.0
 10
130.2048551911277
 20
16.02410768293372
 30
0.0
 10
129.8231253539413
 20
14.6551614874306
 30
0.0
 10
129.5101375837336
 20
12.9957514689531
 30
0.0
 10
129.3870841118459
 20
11.06484128100601
 30
0.0
 10
129.5169085382216
 20
9.11621423266347
 30
0.0
 10
129.8349733887806
 20
7.456540669130845
 30
0.0
 10
130.226216868534
 20
6.073812958719706
 30
0.0
 10
130.7500441587171
 20
4.565331964210894
 30
0.0
 10
131.529194359673
 20
2.782928432091722
 30
0.0
 10
132.5589217840929
 20
0.8317773402965294
 30
0.0
 10
133.4552955432694
 20
-0.6700210967816346
 30
0.0
 10
134.1713555676643
 20
-1.795233044610274
 30
0.0
 10
134.7199388372301
 20
-2.623967488534124
 30
0.0
 10
135.2165370984701
 20
-3.351421519523039
 30
0.0
 10
135.6991978558193
 20
-4.041026082642277
 30
0.0
 10
136.1021179703323
 20
-4.604075186928947
 30
0.0
 10
136.3057465952343
 20
-4.884404529471961
 30
0.0
 10
136.323629380813
 20
-4.908994911198061
 30
0.0
 10
136.3295369747899
 20
-4.917118365473931
 30
0.0
  0
LINE
  5
D7
330
1F
100
AcDbEntity
  8
0
  6
Continuous
 62
     7
370
    25
100
AcDbLine
 10
136.3295369748
 20
-37.9171183655
 30
0.0
 11
92.3295369748
 21
-37.9171183655
 31
0.0
  0
LINE
  5
D8
330
1F
100
AcDbEntity
  8
0
  6
Continuous
 62
     7
370
    25
100
AcDbLine
 10
136.3295369748
 20
60.0828816345
 30
0.0
 11
92.3295369748
 21
60.0828816345
 31
0.0
  0
LINE
  5
D9
330
1F
100
AcDbEntity
  8
0
  6
Continuous
 62
     7
370
    25
100
AcDbLine
 10
204.3295369748
 20
27.0828816345
 30
0.0
 11
204.3295369748
 21
-4.9171183655
 31
0.0
  0
INSERT
  5
E5
330
1F
100
AcDbEntity
  8
FORMAT
 62
     7
100
AcDbBlockReference
  2
SW_CENTERMARKSYMBOL_2
 10
114.3295369748
 20
52.0828816345
 30
0.0
  0
INSERT
  5
F1
330
1F
100
AcDbEntity
  8
FORMAT
 62
     7
100
AcDbBlockReference
  2
SW_CENTERMARKSYMBOL_3
 10
114.3295369748
 20
-29.9171183655
 30
0.0
  0
LINE
  5
F2
330
1F
100
AcDbEntity
  8
0
  6
Continuous
 62
     7
370
    25
100
AcDbLine
 10
303.4864888859
 20
-7.6612991481
 30
0.0
 11
353.7854493011
 21
21.3756726302
 31
0.0
  0
LINE
  5
F3
330
1F
100
AcDbEntity
  8
0
  6
Continuous
 62
     7
370
    25
100
AcDbLine
 10
337.7867495789
 20
49.0892362264
 30
0.0
 11
287.4844136491
 21
20.050315805
 31
0.0
  0
LINE
  5
F4
330
1F
100
AcDbEntity
  8
0
  6
Continuous
 62
     7
370
    25
100
AcDbLine
 10
288.146976777
 20
20.4328053572
 30
0.0
 11
258.4973629141
 21
37.5491631083
 31
0.0
  0
LINE
  5
F5
330
1F
100
AcDbEntity
  8
0
  6
Continuous
 62
     7
370
    25
100
AcDbLine
 10
327.7938274703
 20
-2.454834371
 30
0.0
 11
320.149577544
 21
1.9580971796
 31
0.0
  0
LINE
  5
F6
330
1F
100
AcDbEntity
  8
0
  6
Continuous
 62
     7
370
    25
100
AcDbLine
 10
236.4991507961
 20
-0.5569868364
 30
0.0
 11
305.7956153523
 21
-40.5609843157
 31
0.0
  0
LINE
  5
F7
330
1F
100
AcDbEntity
  8
0
  6
Continuous
 62
     7
370
    25
100
AcDbLine
 10
260.1551111046
 20
36.5921654482
 30
0.0
 11
260.1551111046
 21
66.6725268375
 31
0.0
  0
LINE
  5
F8
330
1F
100
AcDbEntity
  8
0
  6
Continuous
 62
     7
370
    25
100
AcDbLine
 10
246.1551111046
 20
66.6725268375
 30
0.0
 11
246.1551111046
 21
35.6175213549
 31
0.0
  0
LINE
  5
F9
330
1F
100
AcDbEntity
  8
0
  6
Continuous
 62
     7
370
    25
100
AcDbLine
 10
304.1378671618
 20
33.1997942527
 30
0.0
 11
304.1378671618
 21
29.6641498816
 31
0.0
  0
SPLINE
  5
FA
330
1F
100
AcDbEntity
  8
0
  6
Continuous
 62
     7
370
    25
100
AcDbSpline
210
0.0
220
0.0
230
1.0
 70
     8
 71
     3
 72
    27
 73
    23
 74
     0
 42
0.00000001
 43
0.00000001
 40
0.0
 40
0.0
 40
0.0
 40
0.0
 40
0.0589329399445853
 40
0.1198009981449238
 40
0.1786880906485059
 40
0.2390311372985882
 40
0.3034433995461555
 40
0.3691859016236581
 40
0.40741145620429
 40
0.4456345755251528
 40
0.4849976253658239
 40
0.5243493489787078
 40
0.5755753056711609
 40
0.6280898213841026
 40
0.6793964361677708
 40
0.7325080070870976
 40
0.7899993031370067
 40
0.8491467405050164
 40
0.8876727685103338
 40
0.9262044247863604
 40
0.9658327477804076
 40
1.0
 40
1.0
 40
1.0
 40
1.0
 10
286.3891298203205
 20
14.00584352093987
 30
0.0
 10
286.3954204015848
 20
13.34913128244331
 30
0.0
 10
286.4082081212385
 20
12.01414304428899
 30
0.0
 10
286.5124708813598
 20
9.782380043873028
 30
0.0
 10
286.6826650649533
 20
7.453856188306176
 30
0.0
 10
286.9334617286784
 20
5.043496587328669
 30
0.0
 10
287.2861543050108
 20
2.570628983346521
 30
0.0
 10
287.7016146057375
 20
0.4533935033182446
 30
0.0
 10
288.1415703355414
 20
-1.25947833541247
 30
0.0
 10
288.563746735093
 20
-2.601103462791111
 30
0.0
 10
289.0668599705975
 20
-3.88911221887793
 30
0.0
 10
289.7293381176531
 20
-5.228300906316749
 30
0.0
 10
290.6127556645924
 20
-6.560097847322734
 30
0.0
 10
291.7918351724067
 20
-7.768180694829748
 30
0.0
 10
293.2131761233477
 20
-8.688834587318086
 30
0.0
 10
294.8723942690249
 20
-9.284837629297735
 30
0.0
 10
296.7393907177235
 20
-9.52248141001237
 30
0.0
 10
298.4819210949533
 20
-9.410183881671037
 30
0.0
 10
299.9895084420784
 20
-9.107374275381035
 30
0.0
 10
301.2495761766066
 20
-8.719055734971233
 30
0.0
 10
302.425811124297
 20
-8.24223591315857
 30
0.0
 10
303.1482773144095
 20
-7.840558825753422
 30
0.0
 10
303.4827781901902
 20
-7.654582873720103
 30
0.0
  0
SPLINE
  5
FB
330
1F
100
AcDbEntity
  8
0
  6
Continuous
 62
     7
370
    25
100
AcDbSpline
210
0.0
220
0.0
230
1.0
 70
     8
 71
     3
 72
    15
 73
    11
 74
     0
 42
0.00000001
 43
0.00000001
 40
0.0
 40
0.0
 40
0.0
 40
0.0
 40
0.0770197660831897
 40
0.196776068302141
 40
0.3165153454432469
 40
0.4407570744430225
 40
0.5649701514927433
 40
0.7365770658463415
 40
0.9129780015354402
 40
1.0
 40
1.0
 40
1.0
 40
1.0
 10
287.5057406313967
 20
20.01246599180183
 30
0.0
 10
287.439128091336
 20
19.98820414078241
 30
0.0
 10
287.2689412107554
 20
19.92621808322706
 30
0.0
 10
287.0733894305026
 20
19.62699162967855
 30
0.0
 10
286.8716884616388
 20
19.19140910581565
 30
0.0
 10
286.7094464963875
 20
18.59499696716327
 30
0.0
 10
286.5628223327299
 20
17.74790100151824
 30
0.0
 10
286.4497011181454
 20
16.55761127188648
 30
0.0
 10
286.3954367932532
 20
15.22676524002161
 30
0.0
 10
286.3906959590709
 20
14.30902110484583
 30
0.0
 10
286.3891298203205
 20
14.00584352093987
 30
0.0
  0
LWPOLYLINE
  5
FC
330
1F
100
AcDbEntity
  8
0
  6
Continuous
 62
     7
370
    25
100
AcDbPolyline
 90
       74
 70
   128
 43
0.0
 10
357.099807939
 20
28.7011895337
 10
357.0579265693
 20
29.8484673987
 10
356.9325925352
 20
31.03560642
 10
356.724733766
 20
32.2538174355
 10
356.4358891754
 20
33.4940812372
 10
356.0681972676
 20
34.7472153458
 10
355.6243803049
 20
36.0039419949
 10
355.1077241527
 20
37.2549568199
 10
354.5220539526
 20
38.4909977447
 10
353.8717058017
 20
39.702913555
 10
353.1614946501
 20
40.8817316499
 10
352.3966786529
 20
42.0187244728
 10
351.58292024
 20
43.1054741266
 10
350.7262441941
 20
44.1339346971
 10
349.8329930447
 20
45.0964918221
 10
348.9097801111
 20
45.9860190652
 10
347.9634405386
 20
46.7959306782
 10
347.0009806944
 20
47.5202303587
 10
346.0295262944
 20
48.1535556453
 10
345.0562696472
 20
48.6912176193
 10
344.0884164044
 20
49.1292356193
 10
343.1331322129
 20
49.4643667135
 10
342.1974896625
 20
49.6941297084
 10
341.2884159233
 20
49.8168235193
 10
340.4126414593
 20
49.831539764
 10
339.5766501982
 20
49.7381694887
 10
338.7866315268
 20
49.5374039741
 10
338.0484344669
 20
49.230729618
 10
337.3675243713
 20
48.82041693
 10
336.7489424602
 20
48.3095037215
 10
336.1972684974
 20
47.7017726154
 10
335.7165868842
 20
47.0017230401
 10
335.3104564188
 20
46.2145379177
 10
334.9818839493
 20
45.3460452914
 10
334.7333021113
 20
44.4026751767
 10
334.5665513176
 20
43.3914119561
 10
334.4828661328
 20
42.3197426684
 10
334.4828661328
 20
41.1956015783
 10
334.5665513176
 20
40.027311433
 10
334.7333021113
 20
38.823521844
 10
334.9818839493
 20
37.5931452483
 10
335.3104564188
 20
36.3452909236
 10
335.7165868842
 20
35.0891975469
 10
336.1972684974
 20
33.834164794
 10
336.7489424602
 20
32.5894844884
 10
337.3675243713
 20
31.3643718075
 10
338.0484344669
 20
30.167897057
 10
338.7866315268
 20
29.0089185174
 10
339.5766501982
 20
27.8960168602
 10
340.4126414593
 20
26.8374316199
 10
341.2884159233
 20
25.8410001914
 10
342.1974896625
 20
24.9140998043
 10
343.1331322129
 20
24.0635929047
 10
344.0884164044
 20
23.2957763482
 10
345.0562696472
 20
22.61633478
 10
346.0295262944
 20
22.0302985476
 10
347.0009806944
 20
21.5420064583
 10
347.9634405386
 20
21.155073656
 10
348.9097801111
 20
20.8723648556
 10
349.8329930447
 20
20.6959731343
 10
350.7262441941
 20
20.6272044346
 10
351.58292024
 20
20.666567896
 10
352.3966786529
 20
20.813772085
 10
353.1614946501
 20
21.0677271535
 10
353.8717058017
 20
21.426552907
 10
354.5220539526
 20
21.887592725
 10
355.1077241527
 20
22.4474332301
 10
355.6243803049
 20
23.1019295591
 10
356.0681972676
 20
23.8462360501
 10
356.4358891754
 20
24.6748421184
 10
356.724733766
 20
25.5816130543
 10
356.9325925352
 20
26.5598354433
 10
357.0579265693
 20
27.602266869
 10
357.099807939
 20
28.7011895337
  0
LWPOLYLINE
  5
FD
330
1F
100
AcDbEntity
  8
0
  6
Continuous
 62
     7
370
    25
100
AcDbPolyline
 90
       67
 70
   128
 43
0.0
 10
354.9784875954
 20
29.9258017015
 10
354.9368637501
 20
30.95885344
 10
354.8123691662
 20
32.0306075708
 10
354.6061312859
 20
33.1313581226
 10
354.3200178313
 20
34.2511365279
 10
353.9566198903
 20
35.3798019
 10
353.5192284509
 20
36.5071328707
 10
353.0118045976
 20
37.6229201559
 10
352.4389436395
 20
38.7170590134
 10
351.8058334942
 20
39.7796407522
 10
351.118207705
 20
40.8010424674
 10
350.3822935177
 20
41.7720141871
 10
349.6047554851
 20
42.6837626409
 10
348.792635112
 20
43.5280308936
 10
347.9532870863
 20
44.2971731213
 10
347.0943126737
 20
44.9842238528
 10
346.2234908794
 20
45.5829610503
 10
345.3487080006
 20
46.087962457
 10
344.4778862063
 20
46.494654702
 10
343.6189117937
 20
46.7993547173
 10
342.779563768
 20
46.9993030924
 10
341.9674433949
 20
47.0926890639
 10
341.1899053623
 20
47.0786669139
 10
340.453991175
 20
46.9573636292
 10
339.7663653858
 20
46.7298777512
 10
339.1332552404
 20
46.3982694271
 10
338.5603942823
 20
45.9655417533
 10
338.0529704291
 20
45.4356135786
 10
337.6155789897
 20
44.8132840147
 10
337.2521810487
 20
44.1041889744
 10
336.9660675941
 20
43.3147501322
 10
336.7598297138
 20
42.4521167686
 10
336.6353351299
 20
41.5241010248
 10
336.5937112846
 20
40.5391071552
 10
336.6353351299
 20
39.5060554167
 10
336.7598297138
 20
38.4343012859
 10
336.9660675941
 20
37.3335507341
 10
337.2521810487
 20
36.2137723288
 10
337.6155789897
 20
35.0851069566
 10
338.0529704291
 20
33.957775986
 10
338.5603942823
 20
32.8419887007
 10
339.1332552404
 20
31.7478498432
 10
339.7663653858
 20
30.6852681045
 10
340.453991175
 20
29.6638663892
 10
341.1899053623
 20
28.6928946696
 10
341.9674433949
 20
27.7811462158
 10
342.779563768
 20
26.936877963
 10
343.6189117937
 20
26.1677357353
 10
344.4778862063
 20
25.4806850038
 10
345.3487080006
 20
24.8819478064
 10
346.2234908794
 20
24.3769463996
 10
347.0943126737
 20
23.9702541547
 10
347.9532870863
 20
23.6655541393
 10
348.792635112
 20
23.4656057642
 10
349.6047554851
 20
23.3722197928
 10
350.3822935177
 20
23.3862419427
 10
351.118207705
 20
23.5075452274
 10
351.8058334942
 20
23.7350311055
 10
352.4389436395
 20
24.0666394296
 10
353.0118045976
 20
24.4993671034
 10
353.5192284509
 20
25.0292952781
 10
353.9566198903
 20
25.651624842
 10
354.3200178313
 20
26.3607198823
 10
354.6061312859
 20
27.1501587244
 10
354.8123691662
 20
28.0127920881
 10
354.9368637501
 20
28.9408078318
 10
354.9784875954
 20
29.9258017015
  0
LWPOLYLINE
  5
FE
330
1F
100
AcDbEntity
  8
0
  6
Continuous
 62
     7
370
    25
100
AcDbPolyline
 90
       87
 70
   128
 43
0.0
 10
263.0546060412
 20
27.476577366
 10
263.0131061143
 20
28.7639003451
 10
262.8888277538
 20
29.9964401035
 10
262.6824340385
 20
31.1676205082
 10
262.3950261681
 20
32.2711928051
 10
262.0281375879
 20
33.3012689585
 10
261.5837258074
 20
34.2523530664
 10
261.0641619557
 20
35.1193706835
 10
260.4722181306
 20
35.8976958959
 10
259.8110526086
 20
36.5831760016
 10
259.0841929939
 20
37.1721536678
 10
258.295517397
 20
37.6614864437
 10
257.4492337434
 20
38.0485635273
 10
256.5498573225
 20
38.3313196949
 10
255.6021866968
 20
38.50824632
 10
254.6112780991
 20
38.5783994224
 10
253.5824184553
 20
38.541404705
 10
252.521097177
 20
38.3974595507
 10
251.4329768724
 20
38.147331969
 10
250.323863134
 20
37.792356499
 10
249.1996735635
 20
37.3344270883
 10
248.0664061987
 20
36.7759869884
 10
246.9301075114
 20
36.120015719
 10
245.7968401466
 20
35.3700131705
 10
244.6726505762
 20
34.529980931
 10
243.5635368378
 20
33.6044009361
 10
242.4754165331
 20
32.5982115554
 10
241.4140952548
 20
31.5167812446
 10
240.3852356111
 20
30.3658799024
 10
239.3943270133
 20
29.1516480855
 10
238.4466563876
 20
27.8805642458
 10
237.5472799668
 20
26.5594101656
 10
236.7009963131
 20
25.1952347736
 10
235.9123207162
 20
23.7953165358
 10
235.1854611015
 20
22.3671246217
 10
234.5242955795
 20
20.918279053
 10
233.9323517544
 20
19.4565100477
 10
233.4127879027
 20
17.989616776
 10
232.9683761222
 20
16.5254257482
 10
232.6014875421
 20
15.0717490568
 10
232.3140796717
 20
13.636342696
 10
232.1076859563
 20
12.2268651798
 10
231.9834075958
 20
10.8508366807
 10
231.941907669
 20
9.5155989059
 10
231.9834075958
 20
8.2282759268
 10
232.1076859563
 20
6.9957361684
 10
232.3140796717
 20
5.8245557637
 10
232.6014875421
 20
4.7209834668
 10
232.9683761222
 20
3.6909073134
 10
233.4127879027
 20
2.7398232056
 10
233.9323517544
 20
1.8728055884
 10
234.5242955795
 20
1.0944803761
 10
235.1854611015
 20
0.4090002703
 10
235.9123207162
 20
-0.1799773959
 10
236.7009963131
 20
-0.6693101718
 10
237.5472799668
 20
-1.0563872554
 10
238.4466563876
 20
-1.339143423
 10
239.3943270133
 20
-1.516070048
 10
240.3852356111
 20
-1.5862231504
 10
241.4140952548
 20
-1.5492284331
 10
242.4754165331
 20
-1.4052832787
 10
243.5635368378
 20
-1.1551556971
 10
244.6726505762
 20
-0.8001802271
 10
245.7968401466
 20
-0.3422508164
 10
246.9301075114
 20
0.2161892835
 10
248.0664061987
 20
0.8721605529
 10
249.1996735635
 20
1.6221631015
 10
250.323863134
 20
2.4621953409
 10
251.4329768724
 20
3.3877753359
 10
252.521097177
 20
4.3939647166
 10
253.5824184553
 20
5.4753950273
 10
254.6112780991
 20
6.6262963695
 10
255.6021866968
 20
7.8405281865
 10
256.5498573225
 20
9.1116120262
 10
257.4492337434
 20
10.4327661063
 10
258.295517397
 20
11.7969414983
 10
259.0841929939
 20
13.1968597361
 10
259.8110526086
 20
14.6250516502
 10
260.4722181306
 20
16.0738972189
 10
261.0641619557
 20
17.5356662242
 10
261.5837258074
 20
19.0025594959
 10
262.028137588
 20
20.4667505238
 10
262.3950261681
 20
21.9204272151
 10
262.6824340385
 20
23.3558335759
 10
262.8888277538
 20
24.7653110921
 10
263.0131061143
 20
26.1413395913
 10
263.0546060412
 20
27.476577366
  0
LWPOLYLINE
  5
FF
330
1F
100
AcDbEntity
  8
0
  6
Continuous
 62
     7
370
    25
100
AcDbPolyline
 90
       12
 70
   128
 43
0.0
 10
332.3510705974
 20
-12.5274201133
 10
332.3095706706
 20
-11.2400971342
 10
332.1852923101
 20
-10.0075573758
 10
331.9788985947
 20
-8.8363769711
 10
331.6914907243
 20
-7.7328046742
 10
331.3246021442
 20
-6.7027285208
 10
330.8801903637
 20
-5.7516444129
 10
330.360626512
 20
-4.8846267958
 10
329.7686826869
 20
-4.1063015834
 10
329.1075171649
 20
-3.4208214777
 10
328.3806575502
 20
-2.8318438115
 10
327.7938274703
 20
-2.454834371
  0
LWPOLYLINE
  5
100
330
1F
100
AcDbEntity
  8
0
  6
Continuous
 62
     7
370
    25
100
AcDbPolyline
 90
       34
 70
   128
 43
0.0
 10
305.7956153523
 20
-40.5609843157
 10
305.9974608694
 20
-40.6733076511
 10
306.843744523
 20
-41.0603847347
 10
307.7431209439
 20
-41.3431409023
 10
308.6907915696
 20
-41.5200675273
 10
309.6817001673
 20
-41.5902206297
 10
310.7105598111
 20
-41.5532259124
 10
311.7718810894
 20
-41.409280758
 10
312.860001394
 20
-41.1591531764
 10
313.9691151324
 20
-40.8041777064
 10
315.0933047029
 20
-40.3462482957
 10
316.2265720677
 20
-39.7878081958
 10
317.362870755
 20
-39.1318369264
 10
318.4961381198
 20
-38.3818343779
 10
319.6203276902
 20
-37.5418021384
 10
320.7294414286
 20
-36.6162221435
 10
321.8175617333
 20
-35.6100327628
 10
322.8788830116
 20
-34.528602452
 10
323.9077426553
 20
-33.3777011098
 10
324.8986512531
 20
-32.1634692928
 10
325.8463218788
 20
-30.8923854531
 10
326.7456982996
 20
-29.571231373
 10
327.5919819533
 20
-28.207055981
 10
328.3806575502
 20
-26.8071377432
 10
329.1075171649
 20
-25.3789458291
 10
329.7686826869
 20
-23.9301002604
 10
330.360626512
 20
-22.4683312551
 10
330.8801903637
 20
-21.0014379834
 10
331.3246021442
 20
-19.5372469555
 10
331.6914907243
 20
-18.0835702642
 10
331.9788985947
 20
-16.6481639034
 10
332.1852923101
 20
-15.2386863872
 10
332.3095706706
 20
-13.8626578881
 10
332.3510705974
 20
-12.5274201133
  0
LWPOLYLINE
  5
101
330
1F
100
AcDbEntity
  8
0
  6
Continuous
 62
     7
370
    25
100
AcDbPolyline
 90
       74
 70
   128
 43
0.0
 10
258.811965354
 20
25.0273530305
 10
258.7700839843
 20
26.1262756953
 10
258.6447499502
 20
27.168707121
 10
258.4368911811
 20
28.14692951
 10
258.1480465904
 20
29.0537004459
 10
257.7803546827
 20
29.8823065141
 10
257.3365377199
 20
30.6266130052
 10
256.8198815678
 20
31.2811093342
 10
256.2342113677
 20
31.8409498393
 10
255.5838632167
 20
32.3019896573
 10
254.8736520652
 20
32.6608154108
 10
254.108836068
 20
32.9147704793
 10
253.2950776551
 20
33.0619746683
 10
252.4384016091
 20
33.1013381297
 10
251.5451504598
 20
33.03256943
 10
250.6219375261
 20
32.8561777087
 10
249.6755979536
 20
32.5734689083
 10
248.7131381094
 20
32.1865361059
 10
247.7416837095
 20
31.6982440167
 10
246.7684270623
 20
31.1122077843
 10
245.8005738195
 20
30.4327662161
 10
244.8452896279
 20
29.6649496596
 10
243.9096470775
 20
28.81444276
 10
243.0005733384
 20
27.8875423729
 10
242.1247988744
 20
26.8911109444
 10
241.2888076133
 20
25.8325257041
 10
240.4987889419
 20
24.7196240469
 10
239.760591882
 20
23.5606455073
 10
239.0796817864
 20
22.3641707568
 10
238.4610998752
 20
21.1390580759
 10
237.9094259125
 20
19.8943777702
 10
237.4287442992
 20
18.6393450174
 10
237.0226138339
 20
17.3832516407
 10
236.6940413644
 20
16.135397316
 10
236.4454595263
 20
14.9050207203
 10
236.2787087327
 20
13.7012311313
 10
236.1950235479
 20
12.532940986
 10
236.1950235479
 20
11.4087998958
 10
236.2787087327
 20
10.3371306082
 10
236.4454595263
 20
9.3258673876
 10
236.6940413644
 20
8.3824972729
 10
237.0226138339
 20
7.5140046466
 10
237.4287442992
 20
6.7268195242
 10
237.9094259125
 20
6.0267699489
 10
238.4610998752
 20
5.4190388427
 10
239.0796817864
 20
4.9081256343
 10
239.760591882
 20
4.4978129463
 10
240.4987889419
 20
4.1911385902
 10
241.2888076133
 20
3.9903730756
 10
242.1247988744
 20
3.8970028003
 10
243.0005733384
 20
3.911719045
 10
243.9096470775
 20
4.0344128559
 10
244.8452896279
 20
4.2641758508
 10
245.8005738195
 20
4.599306945
 10
246.7684270623
 20
5.037324945
 10
247.7416837095
 20
5.5749869189
 10
248.7131381094
 20
6.2083122056
 10
249.6755979536
 20
6.9326118861
 10
250.6219375261
 20
7.742523499
 10
251.5451504598
 20
8.6320507422
 10
252.4384016091
 20
9.5946078672
 10
253.2950776551
 20
10.6230684376
 10
254.108836068
 20
11.7098180915
 10
254.8736520652
 20
12.8468109144
 10
255.5838632167
 20
14.0256290093
 10
256.2342113677
 20
15.2375448195
 10
256.8198815678
 20
16.4735857444
 10
257.3365377199
 20
17.7246005694
 10
257.7803546827
 20
18.9813272184
 10
258.1480465904
 20
20.2344613271
 10
258.4368911811
 20
21.4747251288
 10
258.6447499502
 20
22.6929361443
 10
258.7700839843
 20
23.8800751656
 10
258.811965354
 20
25.0273530305
  0
ARC
  5
102
330
1F
100
AcDbEntity
  8
0
  6
Continuous
 62
     7
370
    25
100
AcDbCircle
 10
249.6734125877
 20
66.3123462295
 30
0.0
 40
3.536689892661184
100
AcDbArc
 50
114.5250616912
 51
174.1547973512
  0
LWPOLYLINE
  5
103
330
1F
100
AcDbEntity
  8
0
  6
Continuous
 62
     7
370
    25
100
AcDbPolyline
 90
       19
 70
   128
 43
0.0
 10
260.1551111046
 20
66.6725268375
 10
260.0952251342
 20
67.1999850056
 10
259.9165918886
 20
67.7184182182
 10
259.6222678321
 20
68.2189559393
 10
259.217288931
 20
68.6930338298
 10
258.7085844866
 20
69.1325402854
 10
258.1048585729
 20
69.5299552289
 10
257.4164411076
 20
69.8784787803
 10
256.6551111046
 20
70.1721476052
 10
255.8338951311
 20
70.4059369484
 10
254.9668444203
 20
70.5758466096
 10
254.0687944501
 20
70.6789693872
 10
253.1551111046
 20
70.7135408221
 10
252.241427759
 20
70.6789693872
 10
251.3433777888
 20
70.5758466096
 10
250.476327078
 20
70.4059369484
 10
249.6551111046
 20
70.1721476052
 10
248.8937811015
 20
69.8784787803
 10
248.2053636362
 20
69.5299552289
  0
LWPOLYLINE
  5
104
330
1F
100
AcDbEntity
  8
0
  6
Continuous
 62
     7
370
    25
100
AcDbPolyline
 90
       19
 70
   128
 43
0.0
 10
315.6305127468
 20
36.2987129572
 10
315.3991971649
 20
36.4057461956
 10
314.6378671618
 20
36.6994150205
 10
313.8166511884
 20
36.9332043637
 10
312.9496004776
 20
37.1031140249
 10
312.0515505074
 20
37.2062368025
 10
311.1378671618
 20
37.2408082373
 10
310.2241838163
 20
37.2062368025
 10
309.3261338461
 20
37.1031140249
 10
308.4590831353
 20
36.9332043637
 10
307.6378671618
 20
36.6994150205
 10
306.8765371588
 20
36.4057461956
 10
306.1881196935
 20
36.0572226441
 10
305.5843937798
 20
35.6598077007
 10
305.0756893354
 20
35.220301245
 10
304.6707104343
 20
34.7462233546
 10
304.3763863778
 20
34.2456856335
 10
304.1977531322
 20
33.7272524209
 10
304.1378671618
 20
33.1997942527
  0
ENDSEC
  0
SECTION
  2
OBJECTS
  0
DICTIONARY
  5
C
330
0
100
AcDbDictionary
281
     1
  3
ACAD_GROUP
350
D
  3
ACAD_LAYOUT
350
1A
  3
ACAD_MLINESTYLE
350
17
  3
ACAD_PLOTSETTINGS
350
19
  3
ACAD_PLOTSTYLENAME
350
E
  3
ACAD_SCALELIST
350
47
  3
DWGPROPS
350
105
  0
DICTIONARY
  5
D
102
{ACAD_REACTORS
330
C
102
}
330
C
100
AcDbDictionary
281
     1
  0
DICTIONARY
  5
1A
102
{ACAD_REACTORS
330
C
102
}
330
C
100
AcDbDictionary
281
     1
  3
Layout1
350
1E
  3
Layout2
350
26
  3
Model
350
22
  0
DICTIONARY
  5
17
102
{ACAD_REACTORS
330
C
102
}
330
C
100
AcDbDictionary
281
     1
  3
Standard
350
18
  0
DICTIONARY
  5
19
102
{ACAD_REACTORS
330
C
102
}
330
C
100
AcDbDictionary
281
     1
  0
ACDBDICTIONARYWDFLT
  5
E
102
{ACAD_REACTORS
330
C
102
}
330
C
100
AcDbDictionary
281
     1
  3
Normal
350
F
100
AcDbDictionaryWithDefault
340
F
  0
DICTIONARY
  5
47
102
{ACAD_REACTORS
330
C
102
}
330
C
100
AcDbDictionary
281
     1
  3
A0
350
48
  3
A1
350
49
  3
A2
350
4A
  3
A3
350
4B
  3
A4
350
4C
  3
A5
350
4D
  3
A6
350
4E
  3
A7
350
4F
  3
A8
350
50
  3
A9
350
51
  3
B0
350
52
  3
B1
350
53
  3
B2
350
54
  3
B3
350
55
  3
B4
350
56
  3
B5
350
57
  3
B6
350
58
  3
B7
350
59
  3
B8
350
5A
  3
B9
350
5B
  3
C0
350
5C
  3
C1
350
5D
  3
C2
350
5E
  3
C3
350
5F
  3
C4
350
60
  3
C5
350
61
  3
C6
350
62
  3
C7
350
63
  3
C8
350
64
  3
C9
350
65
  3
D0
350
66
  3
D1
350
67
  3
D2
350
68
  0
XRECORD
  5
105
102
{ACAD_REACTORS
330
C
102
}
330
C
100
AcDbXrecord
280
     1
  1
DWGPROPS COOKIE
  2

  3

  4

  6

  7

  8
b.kav
  9

300
=
301
=
302
=
303
=
304
=
305
=
306
=
307
=
308
=
309
=
 40
0.0
 41
2459741.482860798
 42
2459741.482860798
  1

 90
        0
  0
LAYOUT
  5
1E
102
{ACAD_REACTORS
330
1A
102
}
330
1A
100
AcDbPlotSettings
  1

  2
none_device
  4

  6

 40
0.0
 41
0.0
 42
0.0
 43
0.0
 44
0.0
 45
0.0
 46
0.0
 47
0.0
 48
0.0
 49
0.0
140
0.0
141
0.0
142
1.0
143
1.0
 70
   688
 72
     1
 73
     0
 74
     5
  7

 75
    16
147
1.0
148
0.0
149
0.0
100
AcDbLayout
  1
Layout1
 70
     1
 71
     1
 10
0.0
 20
0.0
 11
420.0
 21
297.0
 12
0.0
 22
0.0
 32
0.0
 14
1.0000000000E+20
 24
1.0000000000E+20
 34
1.0000000000E+20
 15
-1.0000000000E+20
 25
-1.0000000000E+20
 35
-1.0000000000E+20
146
0.0
 13
0.0
 23
0.0
 33
0.0
 16
1.0
 26
0.0
 36
0.0
 17
0.0
 27
1.0
 37
0.0
 76
     0
330
1B
  0
LAYOUT
  5
26
102
{ACAD_REACTORS
330
1A
102
}
330
1A
100
AcDbPlotSettings
  1

  2
none_device
  4

  6

 40
0.0
 41
0.0
 42
0.0
 43
0.0
 44
0.0
 45
0.0
 46
0.0
 47
0.0
 48
0.0
 49
0.0
140
0.0
141
0.0
142
1.0
143
1.0
 70
   688
 72
     1
 73
     0
 74
     5
  7

 75
    16
147
1.0
148
0.0
149
0.0
100
AcDbLayout
  1
Layout2
 70
     1
 71
     2
 10
0.0
 20
0.0
 11
0.0
 21
0.0
 12
0.0
 22
0.0
 32
0.0
 14
0.0
 24
0.0
 34
0.0
 15
0.0
 25
0.0
 35
0.0
146
0.0
 13
0.0
 23
0.0
 33
0.0
 16
1.0
 26
0.0
 36
0.0
 17
0.0
 27
1.0
 37
0.0
 76
     0
330
23
  0
LAYOUT
  5
22
102
{ACAD_REACTORS
330
1A
102
}
330
1A
100
AcDbPlotSettings
  1

  2
none_device
  4
Letter_(8.50_x_11.00_Inches)
  6

 40
6.35
 41
6.35
 42
6.35000508
 43
6.35000508
 44
215.9
 45
279.4
 46
0.0
 47
0.0
 48
0.0
 49
0.0
140
0.0
141
0.0
142
1.0
143
1.0
 70
  1712
 72
     1
 73
     0
 74
     0
  7

 75
     0
147
1.0
148
0.0
149
0.0
100
AcDbLayout
  1
Model
 70
     1
 71
     0
 10
0.0
 20
0.0
 11
279.4
 21
215.9
 12
0.0
 22
0.0
 32
0.0
 14
0.0
 24
0.0
 34
0.0
 15
279.4
 25
215.9
 35
0.0
146
0.0
 13
0.0
 23
0.0
 33
0.0
 16
1.0
 26
0.0
 36
0.0
 17
0.0
 27
1.0
 37
0.0
 76
     0
330
1F
331
29
  0
MLINESTYLE
  5
18
102
{ACAD_REACTORS
330
17
102
}
330
17
100
AcDbMlineStyle
  2
Standard
 70
     0
  3

 62
   256
 51
90.0
 52
90.0
 71
     2
 49
0.5
 62
   256
  6
BYLAYER
 49
-0.5
 62
   256
  6
BYLAYER
  0
ACDBPLACEHOLDER
  5
F
102
{ACAD_REACTORS
330
E
102
}
330
E
  0
SCALE
  5
48
102
{ACAD_REACTORS
330
47
102
}
330
47
100
AcDbScale
 70
     0
300
1:1
140
1.0
141
1.0
290
     1
  0
SCALE
  5
49
102
{ACAD_REACTORS
330
47
102
}
330
47
100
AcDbScale
 70
     0
300
1:2
140
1.0
141
2.0
290
     0
  0
SCALE
  5
4A
102
{ACAD_REACTORS
330
47
102
}
330
47
100
AcDbScale
 70
     0
300
1:4
140
1.0
141
4.0
290
     0
  0
SCALE
  5
4B
102
{ACAD_REACTORS
330
47
102
}
330
47
100
AcDbScale
 70
     0
300
1:5
140
1.0
141
5.0
290
     0
  0
SCALE
  5
4C
102
{ACAD_REACTORS
330
47
102
}
330
47
100
AcDbScale
 70
     0
300
1:8
140
1.0
141
8.0
290
     0
  0
SCALE
  5
4D
102
{ACAD_REACTORS
330
47
102
}
330
47
100
AcDbScale
 70
     0
300
1:10
140
1.0
141
10.0
290
     0
  0
SCALE
  5
4E
102
{ACAD_REACTORS
330
47
102
}
330
47
100
AcDbScale
 70
     0
300
1:16
140
1.0
141
16.0
290
     0
  0
SCALE
  5
4F
102
{ACAD_REACTORS
330
47
102
}
330
47
100
AcDbScale
 70
     0
300
1:20
140
1.0
141
20.0
290
     0
  0
SCALE
  5
50
102
{ACAD_REACTORS
330
47
102
}
330
47
100
AcDbScale
 70
     0
300
1:30
140
1.0
141
30.0
290
     0
  0
SCALE
  5
51
102
{ACAD_REACTORS
330
47
102
}
330
47
100
AcDbScale
 70
     0
300
1:40
140
1.0
141
40.0
290
     0
  0
SCALE
  5
52
102
{ACAD_REACTORS
330
47
102
}
330
47
100
AcDbScale
 70
     0
300
1:50
140
1.0
141
50.0
290
     0
  0
SCALE
  5
53
102
{ACAD_REACTORS
330
47
102
}
330
47
100
AcDbScale
 70
     0
300
1:100
140
1.0
141
100.0
290
     0
  0
SCALE
  5
54
102
{ACAD_REACTORS
330
47
102
}
330
47
100
AcDbScale
 70
     0
300
2:1
140
2.0
141
1.0
290
     0
  0
SCALE
  5
55
102
{ACAD_REACTORS
330
47
102
}
330
47
100
AcDbScale
 70
     0
300
4:1
140
4.0
141
1.0
290
     0
  0
SCALE
  5
56
102
{ACAD_REACTORS
330
47
102
}
330
47
100
AcDbScale
 70
     0
300
8:1
140
8.0
141
1.0
290
     0
  0
SCALE
  5
57
102
{ACAD_REACTORS
330
47
102
}
330
47
100
AcDbScale
 70
     0
300
10:1
140
10.0
141
1.0
290
     0
  0
SCALE
  5
58
102
{ACAD_REACTORS
330
47
102
}
330
47
100
AcDbScale
 70
     0
300
100:1
140
100.0
141
1.0
290
     0
  0
SCALE
  5
59
102
{ACAD_REACTORS
330
47
102
}
330
47
100
AcDbScale
 70
     0
300
1/128" = 1'-0"
140
0.0078125
141
12.0
290
     0
  0
SCALE
  5
5A
102
{ACAD_REACTORS
330
47
102
}
330
47
100
AcDbScale
 70
     0
300
1/64" = 1'-0"
140
0.015625
141
12.0
290
     0
  0
SCALE
  5
5B
102
{ACAD_REACTORS
330
47
102
}
330
47
100
AcDbScale
 70
     0
300
1/32" = 1'-0"
140
0.03125
141
12.0
290
     0
  0
SCALE
  5
5C
102
{ACAD_REACTORS
330
47
102
}
330
47
100
AcDbScale
 70
     0
300
1/16" = 1'-0"
140
0.0625
141
12.0
290
     0
  0
SCALE
  5
5D
102
{ACAD_REACTORS
330
47
102
}
330
47
100
AcDbScale
 70
     0
300
3/32" = 1'-0"
140
0.09375
141
12.0
290
     0
  0
SCALE
  5
5E
102
{ACAD_REACTORS
330
47
102
}
330
47
100
AcDbScale
 70
     0
300
1/8" = 1'-0"
140
0.125
141
12.0
290
     0
  0
SCALE
  5
5F
102
{ACAD_REACTORS
330
47
102
}
330
47
100
AcDbScale
 70
     0
300
3/16" = 1'-0"
140
0.1875
141
12.0
290
     0
  0
SCALE
  5
60
102
{ACAD_REACTORS
330
47
102
}
330
47
100
AcDbScale
 70
     0
300
1/4" = 1'-0"
140
0.25
141
12.0
290
     0
  0
SCALE
  5
61
102
{ACAD_REACTORS
330
47
102
}
330
47
100
AcDbScale
 70
     0
300
3/8" = 1'-0"
140
0.375
141
12.0
290
     0
  0
SCALE
  5
62
102
{ACAD_REACTORS
330
47
102
}
330
47
100
AcDbScale
 70
     0
300
1/2" = 1'-0"
140
0.5
141
12.0
290
     0
  0
SCALE
  5
63
102
{ACAD_REACTORS
330
47
102
}
330
47
100
AcDbScale
 70
     0
300
3/4" = 1'-0"
140
0.75
141
12.0
290
     0
  0
SCALE
  5
64
102
{ACAD_REACTORS
330
47
102
}
330
47
100
AcDbScale
 70
     0
300
1" = 1'-0"
140
1.0
141
12.0
290
     0
  0
SCALE
  5
65
102
{ACAD_REACTORS
330
47
102
}
330
47
100
AcDbScale
 70
     0
300
1-1/2" = 1'-0"
140
1.5
141
12.0
290
     0
  0
SCALE
  5
66
102
{ACAD_REACTORS
330
47
102
}
330
47
100
AcDbScale
 70
     0
300
3" = 1'-0"
140
3.0
141
12.0
290
     0
  0
SCALE
  5
67
102
{ACAD_REACTORS
330
47
102
}
330
47
100
AcDbScale
 70
     0
300
6" = 1'-0"
140
6.0
141
12.0
290
     0
  0
SCALE
  5
68
102
{ACAD_REACTORS
330
47
102
}
330
47
100
AcDbScale
 70
     0
300
1'-0" = 1'-0"
140
12.0
141
12.0
290
     0
  0
ENDSEC
  0
EOF
